Song name
# A B C D E F G H I J K L M N O P Q R S T U V W X Y Z

Beatles - Lucy In The Sky With Diamonds tab

 I mixed several different tabs/chord charts together to make this tab, I wanted 
to make one that was more beginner friendly, so you don't have to play up on the 10 and 11 fret. 
This is my first tab, so pardon the poor formatting, if you have any questions/
complaints about the song email me at Tanner.J.Ellis@gmail.com and I'll be sure to 
respond. Have fun! :D

   A                 A/G               A/F#              A/F              
E||------------0----|-------0---------|------------0----|------------------|
B||-----------------|-----------------|-----------------|-------3--2-------|
G||-------2---------|--0---------2----|-------2---------|-------------2----|
D||--2--------------|-----------------|--4--------------|--3---------------|
A||-----------------|-----------------|-----------------|------------------|
E||-----------------|-----------------|-----------------|------------------|
   Pic....ture   your...self   on     a      boat   on a   river   with

     A                 A/G               A/F#              A/F              
E||------------0----|-------0---------|------------0----|------------------|
B||-----------------|-----------------|-----------------|-------3--2-------|
G||-------2---------|--0---------2----|-------2---------|-------------2----|
D||--2--------------|-----------------|--4--------------|--3---------------|
A||-----------------|-----------------|-----------------|------------------|
E||-----------------|-----------------|-----------------|------------------|
    tan....ge...rine   trees      and   mar....malade        skies

     A                 A/G               A/F#              A/F              
E||------------0----|-------0---------|------------0----|------------------|
B||-----------------|-----------------|-----------------|-------3--2-------|
G||-------2---------|--0---------2----|-------2---------|-------------2----|
D||--2--------------|-----------------|--4--------------|--3---------------|
A||-----------------|-----------------|-----------------|------------------|
E||-----------------|-----------------|-----------------|------------------|
 Some...body      calls      you,   you   answer  quite  slowly      a

     A                 A/G               A/F#              A/F              
E||------------0----|-------0---------|------------0----|------------------|
B||-----------------|-----------------|-----------------|-------3--2-------|
G||-------2---------|--0---------2----|-------2---------|-------------2----|
D||--2--------------|-----------------|--4--------------|--3---------------|
A||-----------------|-----------------|-----------------|------------------|
E||-----------------|-----------------|-----------------|------------------|
      girl with ka- lei- dos- cope    eyes


Bb                    C
Cellophane flowers of yellow and green

F                  Bb
towering over your head.

C                          G
Look for the girl with the sun in her eyes,

          D
and she's gone


Chorus:

G           C        D
Lucy in the sky with diamonds,

G           C        D
Lucy in the sky with diamonds,

G           C        D
Lucy in the sky with diamonds. Ah.

     A                 A/G               A/F#              A/F              
E||------------0----|-------0---------|------------0----|------------------|
B||-----------------|-----------------|-----------------|-------3--2-------|
G||-------2---------|--0---------2----|-------2---------|-------------2----|
D||--2--------------|-----------------|--4--------------|--3---------------|
A||-----------------|-----------------|-----------------|------------------|
E||-----------------|-----------------|-----------------|------------------|
  Fol-low     her    down          to a   bridge by    a  fountain   

     A                 A/G               A/F#              A/F              
E||------------0----|-------0---------|------------0----|------------------|
B||-----------------|-----------------|-----------------|-------3--2-------|
G||-------2---------|--0---------2----|-------2---------|-------------2----|
D||--2--------------|-----------------|--4--------------|--3---------------|
A||-----------------|-----------------|-----------------|------------------|
E||-----------------|-----------------|-----------------|------------------|
 where rocking-horse    people    eat  marshmallow          pies,

     A                 A/G               A/F#              A/F              
E||------------0----|-------0---------|------------0----|------------------|
B||-----------------|-----------------|-----------------|-------3--2-------|
G||-------2---------|--0---------2----|-------2---------|-------------2----|
D||--2--------------|-----------------|--4--------------|--3---------------|
A||-----------------|-----------------|-----------------|------------------|
E||-----------------|-----------------|-----------------|------------------|
     everyone         smiles as you        drift  past   the flowers    that

     A                 A/G               A/F#              A/F              
E||------------0----|-------0---------|------------0----|------------------|
B||-----------------|-----------------|-----------------|-------3--2-------|
G||-------2---------|--0---------2----|-------2---------|-------------2----|
D||--2--------------|-----------------|--4--------------|--3---------------|
A||-----------------|-----------------|-----------------|------------------|
E||-----------------|-----------------|-----------------|------------------|
  grow   so     incredibly             high

Bb                C
Newspaper taxis appear on the shore,

F                   Bb
waiting to take you away.

C                           G
Climb in the back with your head in the clouds,

           D
and you're gone.


Chorus:

G           C        D
Lucy in the sky with diamonds,

G           C        D
Lucy in the sky with diamonds,

G           C        D         D   A
Lucy in the sky with diamonds. Ah.

G           C        D
Lucy in the sky with diamonds.

G           C        D
Lucy in the sky with diamonds.

G           C        D         D   A
Lucy in the sky with diamonds. Ah.
Tap to rate this tab
# A B C D E F G H I J K L M N O P Q R S T U V W X Y Z