Guitaretab - guitar tabs
Song name
# A B C D E F G H I J K L M N O P Q R S T U V W X Y Z

Beatles - The Sheik Of Araby tab

  --------------------------------------------------------

  THE BEATLES - THE SHEIK OF ARABY (Smith & Wheeler) From
                BEATLES ANTHOLOGY I. Disc I # 17. Released 
                on November, 21st 1995.
   
  --------------------------------------------------------

  Tabbed by:PJVillanueva  






  This was a Tin Pan Alley hit composed in 1921 by Harry Smith, 
  Francis Wheeler (lyrics) and Ted Sydner (music). Inspired by 
  a Valentino film called The Sheik, it was covered by jazz and
  early rock artists and later also by the Beatles. George, who
  learned the song from a rock 'n' roll version by Joe Brown, 
  an artist maybe made known to them by Brian Epstein, was in 
  charge of the lead vocal. The Beatles brought it to the Decca 
  recording sessions along with other numbers like Besame Mucho,
  September In The Rain, etc, some of which may have been Brian
  suggestions.
       
                                      




  Well I'm the Sheik of Araby
  Your love belongs to me.
  Well at night when you're asleep,
  Into your tent I'll creep. (Not arf!)

  The stars that shine above
  Will light our way to love.
  You'll rule this world with me,
  I'm the Sheik of Araby.
 
  Well I'm the Sheik of Araby,
  Your love belongs to me.
  Oh, at night when you're asleep,
  Into your tent I'll creep.

  The sun that shines above
  Will light our way to love.
  You'll rule this world with me,
  I'm the Sheik of Araby.
  Well I'm the Sheik of Araby,
  Well I'm the Sheik of Araby, yeah. 
 



                                   
  e|------- ------- ------- -------|------- ------- ------- -------|
  B|-------------------------------|-------------------------------|
  G|-------------------------------|-------------------------------|
  D|-------------------------------|-------------------------------|
  A|-------------------------------|------------------------0---2--|
  E|-------------------------------|-------------------------------|

  e|------- ------- ------- -------|------- ------- ------- -------|
  B|-------------------------------|----------------------------0--|
  G|-------------------------------|------------------------2------|
  D|-------------------------------|-------------------------------|
  A|-------------------------------|-------------------------------|
  E|-------------------------------|-------------------------------|




  e|------- ------- ------- -------|------- ------- ------- -------|
  B|-------------------------------|-------------------------------|
  G|-------------------------------|-------------------------------|
  D|-------------------------------|----0-----------------------0--|
  A|3-------2-------0-------0---2--|3-------3---2---0-------3------|
  E|-------------------------------|-------------------------------|

  e|------- ------- ------- -------|------- ------- ------- -------|
  B|1-------0-------------------0--|1---3---1---0-----------1---3--|
  G|----------------2-------2------|----------------2--------------|
  D|-------------------------------|-------------------------------|
  A|-------------------------------|-------------------------------|
  E|-------------------------------|-------------------------------|



                                                    X
  e|------- ------- ------- -------|------- ------- ------- -------|
  B|-------------------------------|-------------------------------|
  G|-------------------------------|-------------------------------|
  D|2---2---2---3---2---0----------|-------------------------------|
  A|------------------------3---2--|0------------------------------|
  E|-------------------------------|-------------------------------|
                                            Well,   I'm     the
  e|0---0-- 0---1-- 0------ -------|------- ------- ------- -------|
  B|--------------------3---1---0--|-------------------------------|
  G|-------------------------------|2------------------------------|
  D|-------------------------------|-------------------------------|
  A|-------------------------------|-------------------------------|
  E|-------------------------------|-------------------------------|


    00:05
        C                               Cdim7
  e|----8-- ------- 8------ 8------|----8-- ----8-- 8------ 8------|
  B|----8-----------8-------8------|----7-------7---7-------7------|
  G|----9-----------9-------9------|----8-------8---8-------8------|
  D|---10----------10------10------|----7-------7---7-------7------|
  A|---10----------10------10------|-------------------------------|
  E|----8-----------8-------8------|-------------------------------|
    Sheik                   of      Araby


       Dm
  e|---10-- ---10-- 10----- 10-----|10----- ---10-- ------- 10-----|
  B|---10------10---10------10-----|10---------10-----------10-----|
  G|---10------10---10------10-----|10---------10-----------10-----|
  D|---12------12---12------12-----|12---------12-----------12-----|
  A|---12------12---12------12-----|12---------12-----------12-----|
  E|---10------10---10------10-----|10---------10-----------10-----|
                                                            Your


       D7                               G7
  e|---10-- ------- 10----- -------|------- ------- ------- -------|
  B|---13-----------13-------------|----8-------8---8--------------|
  G|---11-----------11-------------|---10------10--10--------------|
  D|---10------10---10------10-----|----9-------9---9-------9------|
  A|---12------12---12------12-----|---10------10--10------10------|
  E|---10------10---10------10-----|-------------------------------|
    love                    belongs                         to


        C
  e|----8-- ------- 8------ 8------|8------ ----8-- ------- -------|
  B|----8-----------8-------8------|8-----------8------------------|
  G|----9-------9---9-------9------|9-----------9-----------9------|
  D|---10------10--10------10------10-------x--10----------10------|
  A|---10------10--10------10------10-------x--10----------10------|
  E|----8-------8---8-------8------|8-------x---8-----------8------|
    me                                          Well       at 


                                        Cdim7
  e|----8-- ----8-- 8------ 8------|----8-- 8---8-- 8------ 8------|
  B|----8-------8---8-------8------|----7---7---7---7-------7------|
  G|----9-------9---9-------9------|----8---8---8---8-------8------|
  D|---10------10--10------10------|----7---7---7---7-------7------|
  A|---10------10--10------10------|-------------------------------|
  E|----8-------8---8-------8------|-------------------------------|
    night                   when    you're                  asleep,


       Dm       
  e|---10-- ------- 10----- 10-----|10----- ---10-- ------- -------|
  B|---10------10---10------10-----|10---------10-----------10-----|
  G|---10------10---10------10-----|10---------10-----------10-----|
  D|---12------12---12------12-----|12---------12-----------12-----|
  A|---12------12---12------12-----|12---------12-----------12-----|
  E|---10------10---10------10-----|10---------10-----------10-----|
                                                            into


                                        G7
  e|---10-- ------- 10----- 10-----|------- ------- ------- -------|
  B|---10------10---10------10-----|----8-----------8-------8------|
  G|---10------10---10------10-----|---10----------10------10------|
  D|---12------12---12------12-----|----9-------9---9-------9------|
  A|---12------12---12------12-----|---10------10--10------10------|
  E|---10------10---10------10-----|-------------------------------|
                            your    tent                    I'll


    C5      C6      C5      C6      C7
  e|------- ------- ------- -------|------- ------- ------- -------|
  B|-------------------------------|-------------------------------|
  G|-------------------------------|-------------------------------|
  D|-------------------------------|8------------------------------|
  A10------12------10--10--12------10------------------------------|
  E|8-------8-------8---8---8------|8------------------------------|   
    creep                                                   The
                                           (Not arf!)

    00:25                                        

  e|----8-- ------- 8------ 8------|----8-- ----8-- 8------ 8------|
  B|----8-----------8-------8------|----7-------7---7-------7------|
  G|----9-------9---9-------9------|----8-------8---8-------8------|
  D|---10------10--10------10------|----7-------7---7-------7------|
  A|---10------10--10------10------|-------------------------------|
  E|----8-------8---8-------8------|-------------------------------|
    stars                   that    shine                   above



  e|---10-- ------- 10----- 10-----|10----- ---10-- ------- -------|
  B|---10-----------10------10-----|10---------10-----------10-----|
  G|---10------10---10------10-----|10---------10-----------10-----|
  D|---12------12---12------12-----|12---------12-----------12-----|
  A|---12------12---12------12-----|12---------12-----------12-----|
  E|---10------10---10------10-----|10---------10-----------10-----|
                                                            will



  e|---10-- ------- 10----- -------|------- ------- ------- -------|
  B|---10-----------10-------------|----8-------8---8--------------|
  G|---10------10---10------10-----|---10------10--10--------------|
  D|---12------12---12------12-----|----9-------9---9-------9------|
  A|---12------12---12------12-----|---10------10--10------10------|
  E|---10------10---10------10-----|-------------------------------|
    light                   our     way                     to 


    E5      E6      E5                                      E6
  e|------- ------- ------- -------|------- ------- ------- -------|
  B|-------------------------------|-------------------------------|
  G|-------------------------------|-------------------------------|
  D|9------11-------9-----------9--|----9-------9---9------11------|
  A|7-------7-------7-----------7--|----7-------7---7-------7------|
  E|-------------------------------|-------------------------------|
    love                                                    You'll

 
    00:36
        A+5    
  e|----5-- ----5-- ------- 5------|----5-- ----5-- 5------ 5------|
  B|----6-------6-----------6------|----6-------6---6-------6------|
  G|----6-------6-----------6------|----6-------6---6-------6------|
  D|----7-------7-----------7------|----7-------7---7-------7------|
  A|-------------------------------|-------------------------------|
  E|-------------------------------|-------------------------------|
    rule                    this    world                   with

[ Tab from: http://www.guitaretab.com/b/beatles/55448.html ]
        D7sus2
  e|------- ------- ------- -------|------- ------- ------- -------|
  B|----5-------5-----------5------|----5-------5-----------5------|
  G|----5-------5-----------5------|----5-------5-----------5------|
  D|----7-------7-----------7------|----7-------7-----------7------|
  A|----5-------5-----------5------|----5-------5-----------5------|
  E|-------------------------------|-------------------------------|
    me                                                  I'm     the


        D7                              G6
  e|------- ------- ------- -------|----3-- ----3-- ------- 3------|
  B|----3-------3-----------3------|----5-------5-----------5------|
  G|----5-------5-----------5------|----4-------4-----------4------|
  D|----4-------4-----------4------|----3-------3-----------3------|
  A|----5-------5-----------5------|----5-------5-----------5------|
  E|-------------------------------|----3-------3-----------3------|
    Sheik                   of      Araby.


    A5                              G5
  e|------- ------- ------- -------|------- ------- ------- -------|
  B|-------------------------------|-------------------------------|
  G|2-------2---2---2---2---2------|-------------------------------|
  D|2-------2---2---2---2---2------|5------------------------------|
  A|0-------0---0---0---0---0------|5------------------------------|
  E|-------------------------------|3------------------------------|    
                                            Well,   I'm     the


    00:46

  e|----8-- ------- 8------ 8------|----8-- ----8-- 8------ 8------|
  B|----8-----------8-------8------|----7-------7---7-------7------|
  G|----9-------9---9-------9------|----8-------8---8-------8------|
  D|---10------10--10------10------|----7-------7---7-------7------|
  A|---10------10--10------10------|-------------------------------|
  E|----8-------8---8-------8------|-------------------------------|
    Sheik                   of      Araby



  e|---10-- ------- 10----- 10-----|10----- ---10-- ------- 10-----|
  B|---10------10---10------10-----|10---------10-----------10-----|
  G|---10------10---10------10-----|10---------10-----------10-----|
  D|---12------12---12------12-----|12---------12-----------12-----|
  A|---12------12---12------12-----|12---------12-----------12-----|
  E|---10------10---10------10-----|10---------10-----------10-----|
                                                            Your



  e|---10-- ------- 10----- -------|------- ------- ------- -------|
  B|---13-----------13-------------|----8-------8---8--------------|
  G|---11-----------11-------------|---10------10--10--------------|
  D|---10-----------10------10-----|----9-------9---9-------9------|
  A|---12-----------12------12-----|---10------10--10------10------|
  E|---10-----------10------10-----|-------------------------------|
    love                    belongs                         to



  e|----8-- ------- 8------ 8------|8------ ----8-- ------- 8------|
  B|----8-----------8-------8------|8-----------8-----------8------|
  G|----9-------9---9-------9------|9-------9---9-----------9------|
  D|---10------10--10------10------10------10--10----------10------|
  A|---10------10--10------10------10------10--10----------10------|
  E|----8-------8---8-------8------|8-------8---8-----------8------|
    me                                      Oh,             at  
        


  e|----8-- ------- 8------ 8------|----8-- 8------ 8------ 8------|
  B|----8-----------8-------8------|----7---7-------7-------7------|
  G|----9-----------9-------9------|----8---8-------8-------8------|
  D|---10----------10------10------|----7---7-------7-------7------|
  A|---10----------10------10------|-------------------------------|
  E|----8-----------8-------8------|-------------------------------|
    night                   when    you're                  asleep,



  e|---10-- ------- 10----- 10-----|10----- ---10-- ------- -------|
  B|---10------10---10------10-----|10---------10-----------10-----|
  G|---10------10---10------10-----|10---------10-----------10-----|
  D|---12------12---12------12-----|12---------12-----------12-----|
  A|---12------12---12------12-----|12---------12-----------12-----|
  E|---10------10---10------10-----|10---------10-----------10-----|
                                                            into



  e|---10-- ------- 10----- 10-----|------- ------- ------- -------|
  B|---10------10---10------10-----|----8-------8---8-------8------|
  G|---10------10---10------10-----|---10------10--10------10------|
  D|---12------12---12------12-----|----9-------9---9-------9------|
  A|---12------12---12------12-----|---10------10--10------10------|
  E|---10------10---10------10-----|-------------------------------|
                            your    tent                    I'll



  e|------- ------- ------- -------|------- ------- ------- -------|
  B|-------------------------------|-------------------------------|
  G|-------------------------------|-------------------------------|
  D|-------------------------------|8------------------------------|
  A10------12------10--10--12------10------------------------------|
  E|8-------8-------8---8---8------|8------------------------------|   
    creep                                                   The
                                           (Not arf!)

    01:06                                        

  e|----8-- ------- 8------ 8------|----8-- 8---8-- 8------ 8------|
  B|----8-----------8-------8------|----7---7---7---7-------7------|
  G|----9-------9---9-------9------|----8---8---8---8-------8------|
  D|---10------10--10------10------|----7---7---7---7-------7------|
  A|---10------10--10------10------|-------------------------------|
  E|----8-------8---8-------8------|-------------------------------|
    stars                   that    shine                   above



  e|---10-- ------- 10----- 10-----|10----- ---10-- ------- -------|
  B|---10-----------10------10-----|10---------10-----------10-----|
  G|---10------10---10------10-----|10---------10-----------10-----|
  D|---12------12---12------12-----|12---------12-----------12-----|
  A|---12------12---12------12-----|12---------12-----------12-----|
  E|---10------10---10------10-----|10---------10-----------10-----|
                                                            will



  e|---10-- ------- 10----- -------|------- ------- ------- -------|
  B|---10-----------10-------------|----8-------8---8-------8------|
  G|---10------10---10------10-----|---10------10--10------10------|
  D|---12------12---12------12-----|----9-------9---9-------9------|
  A|---12------12---12------12-----|---10------10--10------10------|
  E|---10------10---10------10-----|-------------------------------|
    light                   our     way                     to 



  e|------- ------- ------- -------|------- ------- ------- -------|
  B|-------------------------------|-------------------------------|
  G|-------------------------------|-------------------------------|
  D|-------------------------------|-------------------------------|
  A|----------------2---2-------2--|----------------2---2----------|
  E|0---0---3---4-----------3------|0---0-------4-----------0------|
    love                                                    You'll

 
    01:16

  e|----5-- ----5-- ------- 5------|----5-- ----5-- ------- 5------|
  B|----6-------6-----------6------|----6-------6-----------6------|
  G|----6-------6-----------6------|----6-------6-----------6------|
  D|----7-------7-----------7------|----7-------7-----------7------|
  A|-------------------------------|-------------------------------|
  E|-------------------------------|-------------------------------|
    rule                    this    world                   with



  e|------- ------- ------- -------|------- ------- ------- -------|
  B|------------5-----------5------|----5-------5-----------5------|
  G|------------5-----------5------|----5-------5-----------5------|
  D|------------7-----------7------|----7-------7-----------7------|
  A|------------5-----------5------|----5-------5-----------5------|
  E|-------------------------------|-------------------------------|
    me                                                  I'm     the



  e|------- ------- ------- -------|----3-- ----3-- ------- 3------|
  B|----3-------3-----------3------|----5-------5-----------5------|
  G|----5-------5-----------5------|----4-------4-----------4------|
  D|----4-------4-----------4------|----3-------3-----------3------|
  A|----5-------5-----------5------|----5-------5-----------5------|
  E|-------------------------------|----3-------3-----------3------|
    Sheik                   of      Araby.

    
    01:24
        Am                          A
  e|------- ------- ------- -------|------- ------- ------- -------|
  B|----1---1---1---1---1---1---1--|2------------------------------|
  G|----2---2---2---2---2---2---2--|2------------------------------|
  D|----2---2---2---2---2---2---2--|2-----------------------7-\----|
  A|----0---0---0---0---0---0---0--|0------------------------------|
  E|-------------------------------|-------------------------------|    
                                            Well,   I'm     the


        D7                              G6
  e|------- ------- ------- -------|----3-- ------- 3------ -------|
  B|----3-----------3-------3------|----5-----------5--------------|
  G|----5-----------5-------5------|----4-----------4--------------|
  D|----4-------4---4-------4------|----3-----------3--------------|
  A|----5-------5---5-------5------|----5-----------5--------------|
  E|-------------------------------|----3-----------3--------------|
    Sheik                   of                          Araby.


    Am                              A
  e|------- ------- ------- -------|------- ------- ------- -------|
  B|1---1---1---1-------1---1------|2------------------------------|
  G|2---2---2---2-------2---2------|2------------------------------|
  D|2---2---2---2-------2---2------|2-----------------------7-\----|
  A|0---0---0---0-------0---0------|0------------------------------|
  E|-------------------------------|-------------------------------|    
                                            Well,   I'm     the


        D7                              G6
  e|------- ------- ------- -------|----3-- ------- 3------ 3-/----|
  B|----3-----------3-------3------|----5-----------5-------5-/----|
  G|----5-----------5-------5------|----4-----------4-------4-/----|
  D|----4-----------4-------4------|----3-------3---3-------3-/----|
  A|----5-----------5-------5------|----5-------5---5-------5-/----|
  E|-------------------------------|----3-------3---3-------3-/----|
    Sheik                   of                  Araby.


        C
  e|----8-- ------- 8------ 8------|8------ ----8-- ------- -------|
  B|----8-----------8-------8------|8-----------8------------------|
  G|----9-----------9-------9------|9-----------9------------------|
  D|---10----------10------10------10----------10------------------|
  A|---10----------10------10------10----------10------------------|
  E|----8-----------8-------8------|8-----------8------------------|








        B  Bend
        R  Release
        /  Slide up
        \  Slide down
        H  Hammer-on
        P  Pull-off
        ~  Vibrato
        +  Harmonic
        x  Mute note
        .  Play note like a dot in standard notation
        ^  Ties two notes together
        (. Pause



Related for The Sheik Of Araby tab
Advertisement will be closed in 10 seconds