Guitaretab - guitar tabs
Song name
# A B C D E F G H I J K L M N O P Q R S T U V W X Y Z
Home / B / Beatles / White tab

Beatles - White tab

The Beatles "White Album"
Album Disk One

1. Back In The USSR
2. Dear Prudence
3. Glass Onion
4. Ob-La-Di Ob-La-Da
5. Wild Honey Pie
6. The Continuing Story Of Bungalow Bill
7. While My Guitar Gently Weeps
8. Happiness Is A Warm Gun
9. Martha My Dear
10. I'm So Tired
11. Blackbird
12. Piggies
13. Rocky Raccoon
14. Don't Pass Me By
15. Why Don't We Do It In The Road
16. I Will
17. Julia


============================================================================

BACK IN THE U.S.S.R

E  E7


 A                          D
Flew in from Miami Beach B. O. A. C.
 C                       D
Didn't get to bed last night
A                            D
On the way the paperback was on my knee
 C                      D
Man I had a dreadful flight


                      A
I'm back in the U.S.S.R.
C                             D
You don't know how lucky you are boy
                  A    D  Eb E
Back in the U.S.S.R.


 A                          D
Been away so long I hardly knew the place
 C                         D
Gee it's good to be back home
  A                          D
Leave it till tomorrow to unpack my case
  C                    D
Honey disconnect the phone


                      A
I'm back in the U.S.S.R.
C                             D
You don't know how lucky you are boy
Gadd9
Back in the U.S.

Back in the U.S.
               A
Back in the U.S.S.R.

            D
Well the Ukraine girls really knock me out
       A
They leave the West behind
       D   D/C#          D/C       D/B
And Moscow girls make me sing and shout
       E                         D             A     D  Eb E
That Geogia's always on my mi mi mi mi mi mi mind         [Oh come on!]


[solo]
  A                                                   D

|---------------------------------------------------------------------------|
|15-------15--15-------15--15-------15--15-------15--15------15------15-----|
|17b(19)-(19)-17b(19)-(19)-17b(19)-(19)-17b(19)-(19)-17b(19)-17b(19)-17b(19)|
|---------------------------------------------------------------------------|
|---------------------------------------------------------------------------|
|---------------------------------------------------------------------------|

  C                               D       A                 D
|---------------------------------------------------------------------------|
|---------15--15b(17)b15----------------------------------------------------|
|-17--17------------------17--14--14-----15-b(19)17-b(19)17-b(19)17-b(19)17-|
|---------------------------------------------------------------------------|
|---------------------------------------------------------------------------|
|---------------------------------------------------------------------------|

  C                                D
|-------------------------------------|
|---------15--15b(17)b15--------------|
|-17--17------------------17--14--14--|
|-------------------------------------|
|-------------------------------------|
|-------------------------------------|

                      A
I'm back in the U.S.S.R.
 C                            D
You don't know how lucky you are boy
                  A
Back in the U.S.S.R.

            D
Well the Ukraine girls really knock me out
       A
They leave the West behind
       D   D/C#          D/C       D/B
And Moscow girls make me sing and shout
       E                         D             A     D  Eb E
That Geogia's always on my mi mi mi mi mi mi mind


     A                                         D
Oh, show me 'round your snow-peaked mountains way down south
 C                       D
Take me to your daddy's farm
 A                              D
Let me hear your balalaikais ringing out
 C                          D
Come and keep your comrade warm


                      A
I'm back in the U.S.S.R.
 C                            D
You don't know how lucky you are boy
                  A   D Eb E   A
Back in the U.S.S.R.

	Gadd9
	-5-
	-3-
	-4-
	-5-
	---
	---


=========================================================================


                               DEAR PRUDENCE
                                  Beatles

D     x x 0 2 3 2        G/D  x x 0 4 3 3
D/C   x 3 x 2 3 2        A/D  x x 0 6 5 5
D/B   x 2 x x 3 2
D/A#  x 1 x x 3 2


     D         D/C              D/B            D/A#
Dear Prudence                                     won't you come out
D              D/C              D/B            D/A#
to play                                           Dear
D              D/C              D/B            D/A#
Prudence                                          greet the brand
D              D/C              D/B            D/A#
new day                                           The

D              D/C              D/B            D/A#
sun is up, the sky is blue it's beautiful, and so are you Dear
D              D/C              C              G
Prudence                  won't you            come out to
D              D/C              D/B            D/A#
play


Dear Prudence  open up your eyes
Dear Prudence  see the sunny skies
The wind is low, the birds will sing
That you are part of everything
Dear Prudence  won't you open up you eyes

D     G/D       A/D     G/D
Look around round
Look around round round
D     F    G#    G      D
Look around_____________


Dear Prudence  let me see you smile
Dear Prudence  like a little child
The clouds will be a daisy chain
So let me see you smile again
Dear Prudence  won't you let me see you smile

DEAR PRUDENCE- The Beatles

PICKING PATTERN:    B+1 3 2 1 B 2 (B= base note 1=high E)

CHORDS:
        opening chords              D  D/C Gm7/B Gm7/Bb  Dsus4 D5
  E |--14-12-10-8--7--5--3--3-------2---2----2------2-----3----5---|
  B |--15-10-10-10-8--5--1--1-------3---3----3------3-----3----3---|
  G |--14-12-11-9--7--5--2--2-------2---2----0------0-----2----2---|
  D |--0--0--0--0--0--0--0--0-------0---0----0------0-----0----0---|
  A |--0--0--0--0--0--0--0--0-------0---3----2------1-----0----0---|
  E
|--0--0--0--0--0--0--0--0-------0---0----0------0-----0----0---
PLAY OPENING CHORDS (except for the first one)

   D     D/C  Gm7/B  Gm7/Bb                     D  D/C  Gm7/B  Gm7/Bb
Dear Prudence            won't you come out to play
D           D/C  Gm7/B  Gm7/Bb                D  D/C  Gm7/B  Gm7/Bb
Dear Prudence            greet the brand new day
     D             D/C              Gm7/B          Gm7/Bb
The sun is up, the sky is blue it's beautiful, and so are you
D          D/C   C          G           D  D/C  Gm7/B  Gm7/Bb
Dear Prudence    won't you come out to play?

Dear Prudence, open up your eyes
Dear Prudence, see the sunny skies
The wind is low, the birds will sing
That you are part of everything
     D     D/C C          G            D  Dsus4 D5 Dsus4
Dear Prudence  won't you open up you eyes?

BRIDGE:
       D           Dsus4              D                Dsus4
Look around round (round round round round round round ...)
       D           Dsus4              D            Dsus4
Look around round round (round round round round round round)
D     F    C  G  D
Look around

Dear Prudence, let me see you smile
Dear Prudence, like a little child
The clouds will be a daisy chain
So let me see you smile again
Dear Prudence  won't you let me see you smile?

REPEAT VERSE 1, REPEAT OPENING CHORDS(including the first one) + D

=========================================================================
Glass Onion
The Beatles

Am                  F7
   I told you 'bout Strawberry fields,
Am                          F7
   you know the place where nothing is real
Am                     Gm7
   Well here's another place you can go   -  wo
C7         Gm7
     Where everything flow   - ows
C7      F7                             D7
     Looking through the bent backed tulips      To
F7                           D7          F7                       G7
see how the other half lives         Looking through a glass onion


I told you 'bout the Walrus and me man
You know that we're as close as can be man
Well here's another clue for you all
The Walrus was Paul
Standing on a cast iron whore yeah
Lady Madonna tryin' to make ends meet yeah   Looking through a glass onion


BRIDGE
Am           F           Am         Am7
     oh yeah          oh yeah    oh yeah
F7                            G7
Looking through a glass onion


I told you 'bout the Fool on the Hill
I tell you that he's living there still
Well here's another place you can be
Listen to me
Fixing a hole in the ocean         Try-                        G  Adim7
ing to make a dove tail joint     Looking through a glass onion

Coda, repeat and fade (each "-" represents a beat)

|Adim7 -  Abdim7 Gdim7 |F#dim7 - - - |- - Gdim7 G#dim7 |Adim7 - - - |

Adim7 = xx1212, Abdim7 = xx3434,  Gdim7 = xx2323, F#dim7 = xx1212
Gm7 = xx3333, F7 = xx1211


=========================================================================

OB-LA-DI, OB-LA-DA


 This song is in Bb, but I recommend playing it with a capo on the 3rd
fret and play in G. If you do this, Bb=G F=D Eb=C  Cm=Bm  Gm=Em


  F

  Bb                          F
Desmond has a barrow in the marketplace,
                          Bb
Molly is the singer in a band.
                             Eb
Desmond says to Molly girl I like your face,
           Bb               F                Bb
And Molly says this as she takes him by the hand:

                              Cm   Gm
Ob-la-di, ob-la-da, life goes on   bra'
Bb              F       Bb
La-la how the life goes on.
                              Cm   Gm
Ob-la-di, ob-la-da, life goes on   bra'
Bb             F        Bb
La-la how the life goes on


  Bb                            F
Desmond takes a trolly to the jewler's store,
                            Bb
Buys a twenty carat golden ring
                               Eb
Takes it back to Molly waiting at the door
           Bb              F             Bb
And as he gives it to her she begins to sing:

                              Cm   Gm
Ob-la-di, ob-la-da, life goes on   bra'
Bb             F        Bb
La-la how the life goes on.
                              Cm   Gm
Ob-la-di, ob-la-da, life goes on   bra'
Bb             F        Bb
La-la how the life goes on


 Eb                                                Bb
In a couple of years they have built a home sweet home
 Eb                                             Bb                F
With a couple of kids running in the yard, of Desmond and Molly Jones


 Bb                       F
Happy ever after in the marketplace,
                                  Bb
Desmond lets the children lend a hand
                                  Eb
Molly stays at home and does her pretty face
            Bb                F                 Bb
And in the evening she still sings it with the band.


                                   Cm   Gm
Yes! Ob-la-di, ob-la-da, life goes on   bra'
Bb              F       Bb
La-la how the life goes on.
                                   Cm   Gm
Yea! Ob-la-di, ob-la-da, life goes on   bra'
Bb             F        Bb
La-la how the life goes on


Eb                                                 Bb
In a couple of years they have built a home sweet home
Eb                                              Bb                F
With a couple of kids running in the yard, of Desmond and Molly Jones


      Bb                        F
Hey, happy ever after in the marketplace,
                                Bb
Molly lets the children lend a hand
                                     Eb
Desmond stays at home and does his pretty face
             Bb              F              Bb
And in the evening she's a singer with the band.


                                   Cm   Gm
Yea! Ob-la-di, ob-la-da, life goes on   bra'
Bb              F       Bb
La-la how the life goes on.
                                   Cm   Gm
Yea! Ob-la-di, ob-la-da, life goes on   bra'
Bb             F        Gm
La-la how the life goes on


And if you want some fun,
      F           Bb
Sing ob-la-di-bla-da!  (Thank you!)

----------------------------------PLEASE NOTE---------------------------------
This file is the beatles own work and represents their interpretation of the
song. You may only use this file for private study, scholarship, or research.
------------------------------------------------------------------------------


                          --------------
=========================================================================

  Wild Honey Pie


Main riff:
  G7                           F7
-|-7------------7-------------|-5------------5--------------|
-|-------6------------6-------|-------4-------------4-------|
-|----7-----7------7-----7----|----5-----5-------5-----5----|
-|----------------------------|-----------------------------|
-|----------------------------|-----------------------------|
-|----------------------------|-----------------------------|

  E7            Eb7            D7
-|----------------------------|-----------------------------|
-|----------------------------|-----------------------------|
-|----------------------------|-----------------------------|
-|----------------------------|-----------------------------|
-|----------------------------|-----------------------------|
-|----------------------------|-----------------------------|


(Main Riff)

G7
Honey Pie           Honey Pie

(Main Riff)

G7
Honey Pie           Honey Pie

(Main Riff)

G7                  F7
Honey Pie           Honey Pie

G7                  F7
Honey Pie           Honey Pie

G7
I love you

CHORDS:

D7- XX0212
E7- X79797
Eb7- X68686
F7- 131211
G7- 320001


=========================================================================

The Continuing Story of Bungalow Bill

 C    G       C
Hey Bungalow Bill,
 Fm           C     Fm      G
What did you kill Bungalow Bill?
 A    E       A
Hey Bungalow Bill,
 Dm           A     Dm      E
What did you kill Bungalow Bill?


       Am              C                  F             G
   He went out tiger hunting with his elephant and gun.
Am               C           F                  G
   In case of accidents he always took his mom.
             E             G            Am            Fm
   He's the all-American bullet-headed saxon mother's son.

(All the children sing)

 C    G       C
Hey Bungalow Bill,
 Fm           C     Fm      G
What did you kill Bungalow Bill?
 A    E       A
Hey Bungalow Bill,
 Dm           A     Dm      E
What did you kill Bungalow Bill?


Am               C                F                 G
   Deep in the jungle where the mighty tiger lies,
Am                 C             F                 G
   Bill and his elephants were taken by surprise.
E               G                Am                Fm
   So Captain Marvel zapped him right between the eyes.

(All the children sing)

 C    G       C
Hey Bungalow Bill,
 Fm           C     Fm      G
What did you kill Bungalow Bill?
 A    E       A
Hey Bungalow Bill,
 Dm           A     Dm      E
What did you kill Bungalow Bill?


Am                C              F                  G
   The children asked him if to kill was not a sin.
Am                C                    F               G
   "Not when he looks so fierce" his mommy butted in,
E                   G                      Am            Fm
   "If looks could kill it would have been us instead of him."

(All the children sing)

 C    G       C
Hey Bungalow Bill,
 Fm           C     Fm      G
What did you kill Bungalow Bill?
 A    E       A
Hey Bungalow Bill,
 Dm           A     Dm      E
What did you kill Bungalow Bill?


(repeat chorus 3x)


=========================================================================

			WHILE MY GUITAR GENTLY WEEPS


Chords above tabs indicate how to place fingers
Key:
p               = pick
h               = hammer on

||   ||
|*   *|         = Repeat bars
|*   *|
||   ||

[+]             = Coda (Tail)
II 4/6 _ _ _    = Barre over the first four strings at second fret.
Harm. 12        = Place a finger lightly on the string at fret 12.

How to play: First play the first three lines up to the repeat bar. Then
repeat from the beginning. Skip the section marked 1 and go to section 2.
Play to the end, and then repeat again from the beginning to the point
marked with [+] and then jump to the last line (the tail),
beginning with a [+]

4/4
   _______________
   | | | | | | | |   Am
e|-----------------||-----------------|-----------------|-----------------|
H|-----------------||---------0---1---|---------0---1---|---------0---1---|
G|-----------------|*-2---2-----------|-2---2-----------|-2---2-----------|
D|---------------2-|*---2---2---2---2-|---2---2---2---2-|---2---2---2---2-|
A|-----------------||-0-------0-------|-----------------|-----------------|
E|-----------------||-----------------|-3-------3-------|-2-------2-------|

                                                       _________________
  A#7               Am                             [+] | 1
e|-----------------|-----0-----------|-----------------|-----------------|
H|-3---1-------3---|-----1---1-------|-0---------------|---------1-------|
G|-----------------|---------2---2---|-----0---2---0---|-----2-------2---|
D|---3---3---3---3-|---2---2---2---2-|---0---0---0---0-|---0---0---0---0-|
A|-----------------|-0---------------|-----------------|-----------------|
E|-1-------1-------|-----------------|-3-------3-------|-2-------2-------|

                    ___________________
                    | 2
                    | C                 E                 II 4/6 _ _ _ _ _
e|-----------------||-------------0---|-----0-----0-0---|-----------------|
H|-----------------||-----1---3---1---|-------------0---|-----2---2---2---|
G|-1-1h2p1-2p0-2-2-*|-----0---0-------|---1-----2-------|-----2-----4-----|
D|-2---------------*|---2---2---2---2-|-----------------|---2---2-------2-|
A|-----------------||-3-------3-------|-----------------|-0---------------|
E|-0-------0-------||-----------------|-0-----2-----4---|-----------------|

  IV                II                IV(Am)            II _ _ _ _ _ _ _
e|-4---------------|-----------------|-----------------|-----------------|
H|-------7-]---5---|-----2---2---2---|-5---------------|-----------------|
G|-----4-----4---4-|-----2---2-4-2---|-----6-------6---|-----4---4p2-4---|
D|---6-----6-------|---4---4-------4-|---6---6---6-----|---4---4-------4-|
A|-4---------------|-----------------|-4-------4-----4-|-2-------2-------|
E|-----------------|-2-------2-------|-----------------|-----------------|

   _ _ _ _ _ _ _ _  E                                   II 4/6 _ _ _ _ _
e|-----------------|-----0-----0-----|-----0-----------|-----------------|
H|-5-------2-------|-------------2---|-------0---------|-----2---2---2---|
G|-----2-------2---|---1-----2---1---|---1-----2p1-----|-----2-----4-----|
D|---4---4---4---4-|-2-----4---------|-------------4p2-|---2---2-------2-|
A|-2---------------|-----------------|-----------------|-0-------0-------|
E|-----------------|-0-------------0-|-0---------------|-----------------|

  IV _ _ _ _ _ _ _  II _ _ _ _ _ _ _  IV(Am) _ _ _ _ _  II _ _ _ _ _ _ _
e|-4---------------|-----------------|-----------------|-----------------|
H|-------7-]---5---|-----2---2---2---|-5---------------|-----------------|
G|-----4-----4---4-|-----2---2-4-2---|-----6-------6---|-----4---4p2-4---|
D|---6-----6-------|---4---4-------4-|---6---6---6-----|---4---4-------4-|
A|-4---------------|-----------------|-4-------4-----4-|-2-------2-------|
E|-----------------|-2-------2-------|-----------------|-----------------|

   _ _ _ _ _ _ _ _   E
e|-----------------|-----------------|-----------------||
H|-5-------2-------|-------0-------0-|-0---------------||
G|-----2-------2---|-----1-------2---|-2---------------*|
D|---4---4---4---4-|---2-------4-----|---------------2-*|
A|-2-------2-------|-----------------|-----------------||
E|-----------------|-0-------0-------|-0---------------||

  [+]               E                           Harm. 12
e|-----------------|-------------0---|---------0-------||
H|---------1-------|---------0-------|-------0---------||
G|-----2-------2---|-1---2---0-------|-----2---2-------||
D|---0---0---0---0-|-2---4-----------|---2-------------||
A|-----------------|-----------------|-0-------0--<0>--||
E|-2-------2-------|-0---------------|-----------------||


WHILE MY GUITAR GENTLY WEEPS
transcribed by MaxxDaddy

  Am          Am/G        D/F#                 F
I look at you all see the love there that's sleeping
Am          G           D    E
While my guitar gently weeps

--------------------------------------------|
--------------------------------------------|
-14(16)-14(16)-(16)14-13-13-13(14)----------|
-----------------------------------14p12-14-|
--------------------------------------------|
--------------------------------------------|

  Am           Am/G       D/F#           F
I look at the floor and I see it needs sweeping
  Am         G          C        E
Still my guitar gently weeps

-------------5----------|
------------5--8-5------|
-7(9)~--7(9)-------7-5~-|
------------------------|
------------------------|
------------------------|

A            C#m  F#m   C#m
I don't know why nobody told you
Bm                   E    E/F# E/G E/G#
how to unfold your love
A            C#m7  F#m     C#m
I don't know how someone controlled you
Bm                   E    E/F# E/G E/G#
They bought and sold you

  Am           Am/G       D/F#         F
I look at the world and I notice it's turning
Am          G          D        E
While my guitar gently weeps

--------5-----------8(10)8-----|
------5---5-8(10)-5--------10~-|
-7(9)--------------------------|
-------------------------------|
-------------------------------|
-------------------------------|

  Am             Am/G      D/F#       F
With every mistake we must surely be learning
Am          G          C        E
Still my guitar gently weeps

--------------------------------------|
------------------13(14)13-15(17)-----|
-(16)14-12h14(16)-----------------14~-|
--------------------------------------|
--------------------------------------|
--------------------------------------|

(heavy whammy throughout)

(2X)
-------------------------|
-------------------------|
-12h14(16)14(16)~~sb14~~-
-------------------------|
-------------------------|
-------------------------|

----------------------------------15-----15--15(17)-15(17)-15(17)~-|
-----------15(17)15p13-15(17)-15~-15(17)---------------------------|
-12h14(16)---------------------------------------------------------|
-------------------------------------------------------------------|
-------------------------------------------------------------------|
-------------------------------------------------------------------|

-(17)15-15(17)~--15p12-------15-15---------|
-----------------------15(17)---15(17)-13~-|
-------------------------------------------|
-------------------------------------------|
-------------------------------------------|
-------------------------------------------|

----------------------------------------------------------|
----------------------------------------------------------|
-(16)14-12h14-14(16)-14(16)-------12----------------------|
----------------------------12h14----14\12p10-12-10h12-10-|
----------------------------------------------------------|
----------------------------------------------------------|

-----------------------------------17---------|
--------------------------------17-17-20(22)~-|
-------12h14-14/17-17/19-19(21)---------------|
-12h14----------------------------------------|
----------------------------------------------|
----------------------------------------------|

A            C#m  F#m      C#m
I don't know how you were diverted
Bm                  E    E/F# E/G E/G#
You were perverted too
A            C#m  F#m       C#m     Bm
I don't know how you were inverted
Bm              E    E/F# E/G E/G#
No one alerted you

  Am           Am/G       D/F#                 F
I look at you all see the love there that's sleeping
Am          G           D      E
While my guitar gently weeps

--------------------------------------------|
--------------------------------------------|
-14(16)-14(16)-(16)14-13-13-13(14)----------|
-----------------------------------14p12-14-|
--------------------------------------------|
--------------------------------------------|

  Am           Am/G       D/F#                 F
Look at you all...
Am          G          C        E
Still my guitar gently weeps

---------------------------------------------------------|
---------------------------------------------------------|
-7(9)~~-7(9)~~-7(9)~~-7(9)~~-7(9)~~-7(9)~~-7(9)~~-7(9)~~-|
---------------------------------------------------------|
---------------------------------------------------------|
---------------------------------------------------------|

--------------------5-5-5---8(10)-5----------|
-8(10)~-8(10)~--------5---5------------------|
---------------7(9)-----------------7(9)-5~~-|
---------------------------------------------|
---------------------------------------------|
---------------------------------------------|

----------------------------------------------------|
----------------------------------------------------|
-----5~~-/17-17(19)17~-(19)17-(19)17-17-14/17-17p14-|
-5h7------------------------------------------------|
----------------------------------------------------|
----------------------------------------------------|

-----------------------------17-------------------------|
--------------------------------17h20-19p17----20(22)~~-|
-14-14h17-17-17-17/19-19(21)----------------------------|
--------------------------------------------19----------|
--------------------------------------------------------|
--------------------------------------------------------|

--------------------------------------17----17----------17-----|
-20(22)-(22)20-20(22)~sb(20)-------20----20----------17----20~-|
-----------------------------19(21)------------19(21)----------|
---------------------------------------------------------------|
---------------------------------------------------------------|
---------------------------------------------------------------|

--------------------------|
--------------------------|
-19(21)19-17-19-------17~-|
----------------17h19-----|
--------------------------|
--------------------------|

------------------------------------------------------------------|
-----------5-8------------------5-8-----------------------8(10)~~-|
-5/7-7(9)~-----7(9)7-5~~--7(9)7-----7(9)7-5h7p5-7p5-7-5h7---------|
------------------------------------------------------------------|
------------------------------------------------------------------|
------------------------------------------------------------------|
(fade)
=========================================================================

HAPPINESS IS A WARM GUN


Note on fingerpicking part in beginning of the song: the bottom three
strings (low E, A, and D) are only struck by the thumb.  Your thumb
should have a steady motion and strike on each downbeat: strike the
A string then the D string then the E string then the D string--thats
four count--then start over again.  So the key to knocking this is
getting comfortable with the thumb motion.  Once you get that, add in
the remaining strings using your other fingers.  By the way, this is
the same pattern John uses on Dear Prudence!  Oh, when the Dm comes, the
thumb just moves up a string so that it plucks the A, D, and G strings;
other than that the pattern is the same.  Have fun!


Fingerpicking pattern:

        Am7              Am6                Em9               Em
|-3---------------|-2---------------|-2---------------|-0---------------|
|-----------1-----|-----------1-----|-----------0-----|-----------0-----|
|-------2---------|-------2---------|-------0---------|-------0---------|
|-----2-------2---|-----2-------2---|-----2-------2---|-----2-------2---|
|-0---------------|-0---------------|-2---------------|-2---------------|
|---------0-------|---------0-------|---------0-------|---------0-------|

She's not        a girl          who misses      much...

        Dm                Dm               Asus2             Asus2
|-1----------1----|-1----------1----|-0---------------|-0---------------|
|-------3---------|-------3---------|-----------0-----|-----------0-----|
|-----2-------2---|-----2-------2---|-------2---------|-------2---------|
|-0---------------|-0---------------|-----2-------2---|-----2-------2---|
|---------0-------|---------0-------|-0---------------|-0---------------|
|-----------------|-----------------|---------0-------|---------0-------|

She's well aquainted...  [note that this section is irregular: sometimes
                          John hold out the Dm for 3 measures and other
                          times for 2 measures.  Gotta know the lyrics!]

      Am7   Am6         Em9       Em
She's not a girl   who misses much
Am7                   Am6    Em9       Em
  Doo doo doo doo doo doo       Oh yeah


Dm  (guitar 2 plays Dm 7: see below)                                         Asus2
  She's well acquainted with the touch of the velvet hand like a lizard on a window pane.
    Dm                                                    Asus2
The man in the crowd with the multicolored mirrors on his hobnail boots.
Dm                                                    Asus2
Lying with his eyes while his hands are busy working overtime
Dm                                                              Asus2
 A soap impression of his wife which he ate and donated to the national trust


[switch into 3/4 time]

A7   C   Am  (with riff 1: see below)

A7
I need a fix 'cause I'm goin' down,

Down to the bits that I left up town
C                        Am
I need a fix 'cause I'm goin' down.


  Am             C
Mother Superior jump the gun,
  Am             G
Mother Superior jump the gun.
  Am             C
Mother Superior jump the gun,
  Am             G
Mother Superior jump the gun.
  Am             C
Mother Superior jump the gun,
  Am             G
Mother Superior jump the gun.


    [Back to 4/4 time]

C            Am         F        G7
        Happiness is a warm gun.
       (Happiness          bang bang shoot)
C            Am         F         G7
        Happiness is a warm gun, mama.
(shoot, Happiness          bang bang shoot)

     [begin cut time: all chords get half the value as above]

C      Am         F       G
  When I hold you  in my arms,
(shooo ooo       ooo      oh)

C        Am       F           G
  And I feel my finger on your trigger,
(yea,    ooo      ooo         oh)

C     Am     F             G
   I know nobody can do me no harm,
(yea, ooo   ooo            oh)

     [back to normal 4/4 time]

  C            Am         F         G
Because, Happiness  is a warm gun mama.
(yea,    Happiness            bang bang shoot)

C             Am         F         G
        Happiness  is a warm gun, yes it is.
(shoot, Happiness            bang bang shoot)

 Fm7
Happiness  is a warm, yes it is,
(shoot)

         C       Am         F         G
 Gun!                               Don't you know that
   (Happiness                   bang bang shoot)
 C       Am       F       G
Happiness   is a warm gun mama.

C             Am         F         G        C
        Happiness  is a warm gun, mama
(shoot, Happiness            is a warm gun yea)

-----------------------------------------------------------

here's what guitar 2 plays when the Dm-Am section begins:

  Dm7     Incidently, this guitar plays a  bar chord
  -7-     on the 3rd count of each measure in this section.
  -6-     They're straight bar chords, only the first Dm
  -7-     has the 7th added.
  ---
  ---
  ---

riff 1: note that this uses a tremelo bar, so all bends will
        refer to usin' that whammy.

|------------------------------------------------------------------------|
|------------------------------------------------------------------------|
|------------------------------------------------------------------------|
|------------------------------------------------------------------------|
|-5/7-b(10)7---3----3---5-b(7)---3-----7-b(10)7--3----3--5/7b(10)-7b(10)-|
|----------------5-----------------5---------------5---------------------|


|-------------------------------------|
|-------------------------------------|
|-------------------------------------|
|-------------------------------------|
|-5/7-b(10)7---3----3----5-b(7)---3---|
|----------------5------------------5-|

-----------------------------------------------------------------------

Am7  Am6   Em9  Asus2
-3-  -2-   -2-   -0-|
-1-  -1-   -0-   -0-|
-2-  -2-   -0-   -2-|
-2-  -2-   -2-   -2-|
-0-  -0-   -2-   -2-|
---  ---   -0-   ---|



=========================================================================

MARTHA,MY DEAR

Notes:
This is mostly a piano & orchestra performance on the White album.
I've always liked the song, so came up with this arrangement for guitar
accompaniment.

Any ideas for fleshing this out, improving or arranging an intro for it,
let me know.  Also, this is my first full attempt at writing guitar
tab notation, so hope its close enough for government work .

I use capo at 3rd fret (chords listed are transposed to 1st position)
The song is really in key of E flat on the record (not C)

 Martha      my   dear  though I   spend my days in conver-sa-tion

   C   C5      C6  C       C5  C6  Em  Em9  Dsus4       D   D5 Dsus4

E|-0---3-------5---0-------3---5--|-0---2---3---3---3---2----5--3--|
B|-1---1-------1---1-------1---1--|-0-------3---3---3---3----3--3--|
G|-0---0-------0---0-------0---0--|-0-------2---2---2---2----2--2--|
D|-2---------------2--------------|-2------------------------------|
A|-3---------------3--------------|-2------------------------------|
E|--------------------------------|--------------------------------|
   +   .   +   .   +   .   +   .    +   .   +   .   +   .   +   .

  please...           be  good to   me             Martha, my love

   D                                G5              F

E|-2-------------------3---2---0--|-3-------3-------1---1---1---1--|
B|-3------------------------------|-3----------3----1---1---1---1--|
G|-2------------------------------|-----0---------0-2---2---2---2--|
D|-0------------------------------|-----------------3---3---3---3--|
A|--------------------------------|--------------------------------|
E|--------------------------------|-3------------------------------|
   +   .   +   .   +   .   +   .    +   .   +   .   +   .   +   .


   don't  forget me                                    Martha, my

   G7              F       F(add 9)   G7              F       F(add 9)

E|-1---1---0-------1-------3--------|-1---1---0-------1-------3--------|
B|-0---0------3--0----1-------1-----|-0---0------3--0----1-------1-----|
G|-0---0-----------------2-------2--|-0---0-----------------2-------2--|
D|-0---0-----------3-------3--------|-0---0-----------3-------3--------|
A|-2---2----------------------------|-2---2----------------------------|
E|-3---3----------------------------|-3---3----------------------------|
   +   .   +   .   +   .   +   .      +   .   +   .   +   .   +   .


   dear ...                          Hold your head up ....
                                   -------
   G5                              | Bm
                                   |
E|-3---3---1--0------------0--1----|---this part I just strum the---|
B|-3---3---------3---0--3----------|---chords as shown below--------|
G|-2---2---------------------------|--------------------------------|
D|-0-------------------------------|--------------------------------|
A|-2-------------------------------|--------------------------------|
E|-3-------------------------------|--------------------------------|
   +   .   +    .    +   .   +   .    +   .   +   .   +   .   +   .


Bm                     Em          D                 D/F# D/G D/G#
Hold your head up, you silly girl, look what you've done


A                             Em
When you find yourself in the thick of it,

A                  Em             F#m        Bm
Help yourself to a bit of what is all around you,

Bm        Em  Em7  Em   C   Csus4  C
You silly girl


(middle eight - staccato eighth feel for the chording)

Bm                Em
Take a good look around you

Bm                Em                 A
Take a good look around to see, that you and me

G                          Bm               Em  Em7 Em   C Csus4 C
Were meant to be with each other, you silly girl

Hold your head up, you silly girl, see what you've done
When you find yourself in the thick of it,
Help yourself to a bit of what is all around you,
You silly girl

Martha, my dear, you have always been my inspiration
Please, be good to me,
Martha, my dear, don't forget me,
Martha, my love


=========================================================================

    A  G#7      D               E7        A  F#m7      D              E7
I'm so tired, I haven't slept a wink, I'm so tired, my mind is on the blink.
  A               E+         F#m          Dm
I wonder should I get up and fix myself a drink, no, no, no

I'm so tired, I don't know what to do, I'm so tired, my mind is set on you.
I wonder should I call you but I know what you would do...

A
You say I'm putting you on but it's no joke, it's doing me harm you know I
E7
can't sleep, I can't stop my brain, you know it's three weeks, I'm going insane
             D                                                   A
you know I'd give you everything I've got for a little peace of mind.

I'm so tired, I'm feeling so upset. Although I'm so tired, I'll have another
cigarette and curse Sir Walter Raleigh, he was such a stupid get.
You say...

=========================================================================

Title:     Blackbird


Note timing changes throughout.

  #1                          #2
  3/4 G       Am7     G       4/4 G
E{|---------------------------|-----------------------------------|
B{|---0-------1-------3-------|---12----12--12----12----12--12----|
G{|-------0-------0-------0---|-------0-------0-------0-------0---|
D{|---------------------------|-----------------------------------|
A{|-----------0-------2-------|---10------10------10------10------|
E{|---3-----------------------|-----------------------------------|
      +   .   +   .   +   .       +   .   +   .   +   .   +   .


  3/4 G       Am7     G       4/4 G
E||---------------------------|-----------------------------------|
B||---0-------1-------3-------|---12----12--12----12----12--12----|
G||.------0-------0-------0---|-------0-------0-------0-------0---|
D||.--------------------------|-----------------------------------|
A||-----------0-------2-------|---10------10------10------10------|
E||---3-----------------------|-----------------------------------|
      +   .   +   .   +   .       +   .   +   .   +   .   +   .
   1. Blackbird singing in the dead of night
   2. Blackbird singing in the dead of night


  #5
      C       A7      D7      B7          Em              Cm
E |-----------------------------------|-----------------------------------|
B |---5-------8-------7-------10------|---8-----8---8-----8-----8---8-----|
G |-------0-------0-------0-------0---|-------0-------0-------0-------0---|
D |-----------------------------------|-----------------------------------|
A |---3-------7-------5-------9-------|---7-------7-------6-------6-------|
E |-----------------------------------|-----------------------------------|
      +   .   +   .   +   .   +   .       +   .   +   .   +   .   +   .
      Take these broken wings and learn to fly
      Take these sunken eyes and learn to see


  #7
  3/2 G       A7      Am7              Cm
E |----------------------------------------------------|
B |---7-------8-------5-----5---5------4-----4---4-----|
G |-------0-------0-------0-------0--------0-------0---|
D |----------------------------------------------------|
A |---5-------7-------3-------3--------3-------3-------|
E |----------------------------------------------------|
      +       .       +       .        +       .
      All     your    life
      All     your    life


  #8
      G               A7               Am7     D7
E |----------------------------------------------------|
B |---3-----3---3-----2-----2---2------1-----1---1-----|
G |-------0-------0-------0-------0--------0-------0---|
D |------------------------------------0-------0-------|
A |---2-------2-------0-------0------------------------|
E |----------------------------------------------------|
      +       .       +       .        +       .
     You were only  waiting  for this  moment  to a-
     You were only  waiting  for this  moment  to be

   -----------------------------------------------------------------------...
  |  1.
  #9
  4/4 G               C       G           A7              D7(Am7)
E |-----------------------------------|-----------------------------------|
B |---0-----0---0-----5-------3-------|---2-----2---2-----1-----1---1-----|
G |-------0-------0-------0-------0---|-------0-------0-------0-------0---|
D |-----------------------------------|-------------------0-------0-------|
A |-------------------3-------2-------|---0-------0-----------------------|
E |---3-------3-----------------------|-----------------------------------|
      +   .   +   .   +   .   +   .       +   .   +   .   +   .   +   .
      rise.

  ... -----------------  -------------------
                       ||  2.               |
  #11                  ||                   |
  2/2 G
E |--------------------||-------------------|
B |---0-----0---0------||---0-----0---0-----|
G |-------0-------0---.||-------0-------0---|
D |-------------------.||-------------------|
A |--------------------||-------------------|
E |---3-------3--------||---3-------3-------|
      +   .   +   .         +   .   +   .
                             free.

  #13
  4/4 F       Em      Dm      C           Bb              C
E |-----------------------------------|-----------------------------------|
B |---10------8-------6-------5-------|---3-----3---3-----5-----5---5-----|
G |-------0-------0-------0-------0---|-------0-------0-------0-------0---|
D |-----------------------------------|-----------------------------------|
A |---8-------7-------5-------3-------|---1-------1-------3-------3-------|
E |-----------------------------------|-----------------------------------|
      +   .   +   .   +   .   +   .       +   .   +   .   +   .   +   .
      Black     -     bird,              fly,


  #15
  4/4 F       Em      Dm      C           Bb              A7
E |-----------------------------------|-----------------------------------|
B |---10------8-------6-------5-------|---3-----3---3-----2-----2---2-----|
G |-------0-------0-------0-------0---|-------0-------0-------0-------0---|
D |-----------------------------------|-----------------------------------|
A |---8-------7-------5-------3-------|---1-------1-------0-------0-------|
E |-----------------------------------|-----------------------------------|
      +   .   +   .   +   .   +   .       +   .   +   .   +   .   +   .
      Black     -     bird,              fly,                    into the

  #17
  2/4 D7(Am7)
E |----------------------|
B |---1-----1---1----1---|
G |-------0-------0------|
D |---0-------0----------|
A |----------------------|
E |----------------------|
      +   .   +   .
      light of a dark black


  #18
  3/4 G       Am7     G       4/4 G
E |---------------------------|-----------------------------------|
B |---0-------1-------3-------|---12----12--12----12----12--12----|
G |-------0-------0-------0---|-------0-------0-------0-------0---|
D |---------------------------|-----------------------------------|
A |-----------0-------2-------|---10------10------10------10------|
E |---3-----------------------|-----------------------------------|
      +   .   +   .   +   .       +   .   +   .   +   .   +   .
      night.


  #20
      C       A7      D7      B7          Em              Cm
E |-----------------------------------|-----------------------------------|
B |---5-------8-------7-------10------|---8-----8---8-----8-----8---8-----|
G |-------0-------0-------0-------0---|-------0-------0-------0-------0---|
D |-----------------------------------|-----------------------------------|
A |---3-------7-------5-------9-------|---7-------7-------6-------6-------|
E |-----------------------------------|-----------------------------------|
      +   .   +   .   +   .   +   .       +   .   +   .   +   .   +   .


  #22
  3/2 G       A7      Am7              Cm
E |----------------------------------------------------|
B |---7-------8-------5-----5---5------4-----4---4-----|
G |-------0-------0-------0-------0--------0-------0---|
D |----------------------------------------------------|
A |---5-------7-------3-------3--------3-------3-------|
E |----------------------------------------------------|
      +       .       +       .        +       .


  #23                                                  #24
      G               A7               D7(Am7)         2/4 G
E |----------------------------------------------------|---------------|
B |---3-----3---3-----2-----2---2------1-----1---1-----|---0-----------|
G |-------0-------0-------0-------0--------0-------0---|---0-----------|
D |------------------------------------0-------0-------|---------------|
A |---2-------2-------0-------0------------------------|---------------|
E |----------------------------------------------------|---3-----------|
      +       .       +       .        +       .           +       .


  #25
  4/4 F       Em      Dm      C           Bb              C
E |-----------------------------------|-----------------------------------|
B |---10------8-------6-------5-------|---3-----3---3-----5-----5---5-----|
G |-------0-------0-------0-------0---|-------0-------0-------0-------0---|
D |-----------------------------------|-----------------------------------|
A |---8-------7-------5-------3-------|---1-------1-------3-------3-------|
E |-----------------------------------|-----------------------------------|
      +   .   +   .   +   .   +   .       +   .   +   .   +   .   +   .
      Black     -     bird,               fly,


  #27
  4/4 F       Em      Dm      C           Bb              A7
E |-----------------------------------|-----------------------------------|
B |---10------8-------6-------5-------|---3-----3---3-----2-----2---2-----|
G |-------0-------0-------0-------0---|-------0-------0-------0-------0---|
D |-----------------------------------|-----------------------------------|
A |---8-------7-------5-------3-------|---1-------1-------0-------0-------|
E |-----------------------------------|-----------------------------------|
      +   .   +   .   +   .   +   .       +   .   +   .   +   .   +   .
      Black     -     bird,               fly,                    into the

  #29
  2/4 D7(Am7)
E |----------------------|
B |---1-----1---1----1---|
G |-------0-------0------|
D |---0-------0----------|
A |----------------------|
E |----------------------|
      +   .   +   .
    light of a dark, black


  #30
  3/4 G       Am7     G       4/4 G
E |---------------------------|-----------------------------------|
B |---0-------1-------3-------|---12----12--12----12----12--12----|
G |---------------------------|-------0-------0-------0-------0---|
D |---------------------------|-----------------------------------|
A |-----------0-------2-------|-----------------------------------|
E |---3-----------------------|---10------10------10------10------|
      +   .   +   .   +   .       +   .   +   .   +   .   +   .
      night.


 #31
      G
E |-----------------------------------|-----------------------------------|
B |---12----12--12----12----12--12----|---12----12--12----12--------------|
G |-------0-------0-------0-------0---|-------0-------0---0---------------|
D |-----------------------------------|-----------------------------------|
A |---10------10------10------10------|---10------10------10--------------|
E |-----------------------------------|-----------------------------------|
      +   .   +   .   +   .       +   .   +   .   +   .   +   .   +   .
                                molto rit.


  #34
  3/4    G       Am7     G       3/4 C       G       A7
E||------------------------------|---------------------------|
B||------0-------1-------3-------|---5-------3-------2-------|
G||----------0-------0-------0---|-------0-------0-------0---|
D||------------------------------|---------------------------|
A||--------------0-------2-------|---3-------2-------0-------|
E||---10\3-----------------------|---------------------------|
          +   .   +   .   +   .      +   .   +   .   +   .
 slide down
        a tempo


  #36
  2/4 Am7/D
E |------------------|
B |--1-----1---1-----|
G |------0-------0---|
D |--0-------0-------|
A |------------------|
E |------------------|
     +   .   +   .

  #37
  3/4 G       Am7     G       4/4 G
E||---------------------------|-----------------------------------|
B||---0-------1-------3-------|---12----12--12----12----12--12----|
G||.------0-------0-------0---|-------0-------0-------0-------0---|
D||.--------------------------|-----------------------------------|
A||-----------0-------2-------|---10------10------10------10------|
E||---3-----------------------|-----------------------------------|
      +   .   +   .   +   .       +   .   +   .   +   .   +   .
    Blackbird singing in the dead of night


  #39
      C       A7      D7      B7          Em              Cm
E |-----------------------------------|-----------------------------------|
B |---5-------8-------7-------10------|---8-----8---8-----8-----8---8-----|
G |-------0-------0-------0-------0---|-------0-------0-------0-------0---|
D |-----------------------------------|-----------------------------------|
A |---3-------7-------5-------9-------|---7-------7-------6-------6-------|
E |-----------------------------------|-----------------------------------|
      +   .   +   .   +   .   +   .       +   .   +   .   +   .   +   .
      Take these broken wings and learn to fly;


  #41
  3/2 G       A7      Am7              Cm
E |----------------------------------------------------|
B |---7-------8-------5-----5---5------4-----4---4-----|
G |-------0-------0-------0-------0--------0-------0---|
D |----------------------------------------------------|
A |---5-------7-------3-------3--------3-------3-------|
E |----------------------------------------------------|
      +       .       +       .        +       .
      All     your    life


  #42
  4/4 G               A7                  Am7             G
E||-----------------------------------|-----------------------------------||
B||---3-----3---3-----2-----2---2-----|---1-----1---1-----0---------------||
G||.------0-------0-------0-------0---|-------0-------0---0--------------.||
D||.----------------------------------|---0-------0----------------------.||
A||---2-------2-------0-------0-------|-----------------------------------||
E||-----------------------------------|-------------------3---------------||
      +   .   +   .   +   .   +   .       +   .   +   .   +   .   +   .
     You were only   waiting  for this    moment  to    a-rise.


  #44
      C       G       A7                  Am7     D7      G
E |-----------------------------------|-----------------------------------||}
B |---5-------3-------2-----2---2-----|---1-----1---1-----3---------------||}
G |-------0-------0-------0-------0---|-------0-------0---0---------------||}
D |-----------------------------------|---0-------0-------0---------------||}
A |---3-------2-------0-------0-------|-----------------------------------||}
E |-----------------------------------|-------------------3---------------||}
      +   .   +   .   +   .   +   .       +   .   +   .   +   .   +   .
     You were only   waiting  for this    moment  to    a-rise.

-------------------------


>Blackbird  by John Lennon and Paul McCartney

>   E--------------------   |--------------------------------------------|
>   B---0-----1-----3----   |12-----12------12-----12-----12------12-----|
>3  G------0-----0-----0-  4|----0--------------0------0--------------0--|
>4  D--------------------  4|--------------------------------------------|
>   A---------0-----2----   |10---------10---------10---------10---------|
>   E---3----------------   |--------------------------------------------|

>  ||--------------------   |--------------------------------------------|
>  ||---0-----1-----3----   |12-----12------12-----12-----12------12-----|
>3 ||.-----0-----0-----0-  4|----0--------------0------0--------------0--|
>4 ||.-------------------  4|--------------------------------------------|
>  ||---------0-----2----   |10---------10---------10---------10---------|
>  ||---3----------------   |--------------------------------------------|

>   E---0-----3-----2-----5-----3------3-----3-----3----3-----3---------|
>   B-------------------------------------------------------------------|
>4  G------0-----0-----0-----0------0-----------0-----0----------0------|
>4  D---------------0------------2--------2--------1-------1------------|
>   A---3-----4-----------6---------------------------------------------|
>   E-------------------------------------------------------------------|

>   E---2-----3--------------------------------------|
>   B---------------5----5-----5----4----4----4------|
>3  G------0-----0-----0---------0-----0---------0---|
>2  D---0--------------------------------------------|
>   A---------4-----3-------3-------3------3---------|
>   E------------------------------------------------|

>    E--------------------------------------------------------------|
>    B---3------3-----3----2----2-----2----1----1---1---------------|
>3   G--------0---------0-----0---------0-----0-------0-------------|
>2   D-------------------------------------0------0-----------------|
>    A---2---------2-------0-------0--------------------------------|
>    E--------------------------------------------------------------|

>    E-------------------0------------------------------------------|
>    B---0----0-----0----------3-----2----2---2----1-----1-----1----|
>4   G------0---------0-----0-----0-----0-------0-----0-----------0-|
>4   D---------------------------------------------0--------0-------|
>    A-------------------3-----2-----0------0-----------------------|
>    E---3-------3--------------------------------------------------|

>    E-------------------||  -----------------    -5-----3-----1----------|
>    B--0----0-----0-----||  --0----0-----0---    -------------------5----|
>2   G-----0---------0--.||2 -----0---------0-  4 ----0-----0-----0-----0-|
>4   D------------------.||4 -----------------  4 -3-----2-----0----------|
>    A-------------------||  -----------------    -------------------3----|
>    E--3-------3--------||  --3-------3------    ------------------------|

>    E--------------------------------|-5-----3-----1---------------|
>    B--3---------3-----5---------5---|-------------------5---------|
> 4  G-------0---------------0------0-|----0-----0-----0-----0------|
> 4  D-----0---------0-----0----------|-3-----2-----0---------------|
>    A--1------1--------3------3------|-------------------3---------|
>    E--------------------------------|-----------------------------|

>    E--------------------------------     ---------------------------|
>    B--3---------3-----3---------2---     --1-----1-----1------------|
> 4  G-------0---------------0------0-  2  -----0-----------0---------|
> 4  D-----0---------0-----0----------  4  --0--------0---------------|
>    A--1------1--------0------0------     ---------------------------|
>    E--------------------------------     ---------------------------|

>   (one blank 3/4 measure, one blank 4/4, and one blank 2/4)


>    E--------------------|
>    B--0-----1-----3-----|
> 3  G-----0-----0-----0--|
> 4  D--------------2-----|
>    A--------0-----------|
>    E--3-----------------|

>    E---------------------------|---------------------------------|
>    B--12---12--12---12---------|-12-----------12-----------------|
> 4  G-----0--------0----0-/-/-/-|----/-/-/-/-/-----/-/-/-/-/------|
> 4  D---------------------|-|-|-|----|-|-|-|-|-----|-|-|-|-|------|
>    A--10-----10-----10---|_|_|-|-10-|_|_|_|_|-10--|_|_|_|_|------|
>    E---------------------------|---------------------------------|
>                                 (tie to 10, brush strokes on G)

>    E-----------------------------|
>    B--12-----12-----12-----------|
> 4  G------/------/------/---/-/--|
> 4  D------|------|------|---|-|--|
>    A--10__|--10__|--10__|---|_|--|
>    E-----------------------------|

>    E--------------------|--0----------------|    ---------------------|
>    B--0-----1-----3-----|--------3-----2----|    --1----1-----1-------|
> 3  G-----0-----0-----0--|-----0-----0-----0-|  2 -----0---------0-----|
> 4  D--------------------|-------------------|  4 ---------------------|
>    A--------0-----2-----|--3-----2-----0----|    --0-------0----------|
>    E--3-----------------|-------------------|    ---------------------|

>      (blank 3/4 measure, blank 3/2)

>    E-----------------------------|--------------------------------|
>    B--3----3---3----2----2---2---|-1-----1---1-----0----0-----0---|
> 4  G-----0-------0-----0-------0-|----0---------0-----0---------0-|
> 4  D-----------------------------|-0-------0----------------------|
>    A--2------2------0------0-----|--------------------------------|
>    E-----------------------------|-----------------3-------3------|

>    ||---0----------------------------|-----------------------------||
>    ||---------3-----2-----2-----2----|-1----1---1----0----0----0---||
> 4  ||.-----0-----0-----0-----------0-|----0-------0-----0--------0.||
> 4  ||.-------------------------------|-0------0-------------------.||
>    ||---3-----2-----0--------0-------|-----------------------------||
>    ||--------------------------------|---------------3-------3-----||

>    E--------------------------------||
>    B--1----1----1-------------------||
>    G-----0--------0---/------/------||
>    D--0------0--------|------|------||
>    A------------------|------|------||
>    E--------------------------------||
>                       (brush strokes on G chord)


--------------------------------
BLACKBIRD

E--------------------------------------------------------------|
B----0----1---3----12---12-----12--12----12----12--------------|
G------0----0---0-----0-----0----------0-----0-----------------|
D--------------------------------------------------------------|
A---------0---2----10--------------10--------------------------|
E----3---------------------------------------------------------|


same thing again..

E--------------------------------------------------------------|
B----0----1---3----12---12-----12--12----12----12--------------|
G------0----0---0-----0-----0----------0-----0-----------------|
D--------------------------------------------------------------|
A---------0---2----10--------------10--------------------------|
E----3---------------------------------------------------------|

E---0----3---2---5---3---3---3-3---3---3-2---3-----------------|
B-----0----0---0---4---0---0-----0---0-----0---5---5---5-------|
G------------------------------------------------0---0---------|
D--------2---0---4---2---------1---------0---------------------|
A---3----------------------------------------2-3---------------|
E--------------------------------------------------------------|

E--------------------------------------------------------------|
B---4---4---4--3---3---3--2---2---2-1---1---1-0---0---0--------|
G-----0---0------0---0------0---0-----0---0-----0---0----------|
D--------------------------------------------------------------|
A---3----------2----------0---------2--------------------------|
E---------------------------------------------3----------------|

E--------------------------------------------------------------|
B---10----8-----6----5----3---3---3-5---5---5------------------|
G------0-----0-----0---0----0---0-----0---0--------------------|
D--------------------------------------------------------------|
A---8-----7-----5----3----1---------3--------------------------|
E--------------------------------------------------------------|

E---------------------------------------------------------------|
B---10----8-----6----5----3---3---3-2---2---1---1---1-0---0---0-|
G------0-----0-----0---0----0---0-----0---0---0---0-----0---0---|
D---------------------------------------------------------------|
A---8-----7-----5----3----1---------0---------------------------|
E-------------------------------------------2---------3---------|

Then it starts again.
The song consists of these parts in a mix I can't remember
exactly right now but listen to the recording and I think
you will find out.
As always, the timing isn't in the tab, just the fingering.



=========================================================================

                                 Piggies

     F                 C7             F               C
     Have you seen the little piggies crawling in the dirt
     F               C7            Dm              G
     And for all the little pigies life is getting worse
     Dm7           G7      C7  Bb Cdim C
     Always having dirt to play around in

     F                 C7             F                       C
     Have you seen the bigger piggies in their starched white shirts
     F                 C7             Dm              G
     You will find the bigger piggies stirring up the dirt
     Dm7               G7        C7  Bb Cdim C
     Always have clean shirts to play around in

              Gm                  A7
     BRIDGE:  In their styes with all their backing
              Bb                   C
              They don't care what goes on around
              Gm                    A7
              In their eyes there's something lacking
              Bb                 C
              what they need's a damn good whacking

     F                 C7               F            C
     Everywhere there's lots of piggies living piggy lives
     F                C7             Dm              G
     You can see them out for dinner with their piggy wives
     Dm7                 G7         C7  Bb Cdim C
     Clutching forks and knives to eat their bacon


--------------------

PIGGIES- The Beatles

G                 D7             G               D
Have you seen the little piggies crawling in the dirt
G               D7            Em              A
And for all the little pigies life is getting worse
Em7           A7      D   Em7 Fdim D/F# G D G D
Always having dirt to play around in

G                 D7             G                       D
Have you seen the bigger piggies in their starched white shirts
G                 D7             Em              A
You will find the bigger piggies stirring up the dirt
Em7               A7        D    Em7 Fdim D/F# G D G B
Always have clean shirts to play around in


BRIDGE:
Am                  B7
In their styes with all their backing
C                    D
They don't care what goes on around
Am                    B7
In their eyes there's something lacking
C                  D                  D7
What they need's a damn good whacking!

G                 D7               G            D
Everywhere there's lots of piggies living piggy lives
G                D7             Em              A
You can see them out for dinner with their piggy wives
Em7                 A7         D   Em7  Fdim D/F#
Clutching forks and knives to eat their bacon

G D Gm D Gm D A7 D
          Ab   Eb
One more time

Em7: 0 x 2 4 3 3   Fdim: x x 3 4 3 4   D/F#:  x x 3 1 2 5
Ab:  4 6 6 5 4 4   Eb:   6 6 8 8 8 6

=========================================================================

ROCKY RACOON


THE FOLLOWING PROGRESSION IS REPEATED THROUGHOUT THE SONG:

----3-3-3----3-3-3----3-3-3---2-2-2---1-1-1---1-1-1--|
----1-1-1----1-1-1----1-1-1---1-1-1---0-0-0---0-0-0--|
----2-2-2----2-2-2----2-2-2---2-2-2---0-0-0---0-0-0--|
-------------------0--------0------------------------|
--0--------0-----------------------------------------|
-------------------------------------3-------3-------|

-----0-0-0---0-0-0----|
-----1-1-1---1-1-1----|
-----0-0-0---0-0-0----|        REPEAT
----------------------|
--3--------2----------|
----------------------|


I GET BORED AFTER PLAYING ROCKY RACOON LIKE THIS, SO I OFTEN FINGER PICK
IT AS SHOWN BELOW:

----3-----3---3--3-----3------|
-----1-----1---1--1-----1-----|
------2-----2------2-----2----|
-----------------0-----0------|   etc.
----0-----0----0--------------|
------------------------------|

intro
-----

Now somewhere in the black mining hills out Dakota
There lived a young boy name of Rocky Raccoon
And one day his woman ran off with another guy
Hit young Rocky in the eye...
Rocky didn't like that, he said, "I'm going to get that boy."
So one day he walked into town and booked himself a room in the local
saloon.

Rocky Racoon checked into his room
only to find Gideon's bible

Rocky had come equipped with a gun
to shoot off the legs of his rival.

His rival, it seems, had broken his dreams
by stealing the girl of his fancy

Her name was McGill, and she called herself 'Lil'
But everyone knew her as Nancy.

Now she and her man (who called himself Dan)
Were in the next room at the hoedown

Rocky burst in, and grinning a grin,
he said, "Danny boy, this is a showdown."

But Daniel was hot. He drew first and shot
and Rocky collapsed in the corner.

Da-n-da da da-n-da da da...

Now the doctor came in stinking of gin
and proceeded to lie on the table.

He said, "Rocky, you met your match."
But Rocket said, "Doc, it's only a scratch.
And I'll be better... I'll be better Doc as soon as I am able."

Now Rocky Raccoon, he fell back in his room
only to find Gideon's bible.

Gideon checked out, and he left it no dobt
to help with good Rocky's revival.

Oh yeah, yeah
Da-n-da da da-n-da da da...

----------------------------
 Rocky Raccoon


     A7    A7   D7   D7  G7  C   Em
e:---3------3------2-----2----1-----0-----0--------------------------------------|
B:---1------1-----1-----1-----0-----1-----0--------------------------------------|
G:---0------0-----2-----2-----0-----0-----0--------------------------------------|
D:---2------2-------------------0-----2-----2------------------------------------|
A:--------------------------------2-----3-----2----------------------------------|
E:--------------------------------3------------0---------------------------------|

REPEAT FOR THE WHOLE SONG

You will have to listen to the song to get it wright, but they always hit
the root note
on the beginning of each chord...    So enjoy


Now somewhere in the black mountain hills of Dakota
There lived a young boy named Rocky Raccoon
And one day his woman ran off with another guy
Hit young Rocky in the Rocky didn't like that
He said I'm gonna get that boy
So one day he walked into town
Booked himself a room in the local saloon.

Rocky Raccoon checked into his room
Only to find Gideon's bible
Rocky had come equipped with a gun
To shoot off the legs of his rival
His rival it seems had broken his dreams
By stealing the girl of his fancy.
Her name was Magil and she called herself Lil
But everyone knew her as Nancy.
Now she and her man who called himself Dan
Were in the next room at the hoe down
Rocky burst in and grinning a grin
He said Danny boy this is a showdown
But Daniel was hot-he drew first and shot
And Rocky collapsed in the corner.

Now the doctor came in stinking of gin
And proceeded to lie on the table
He said Rocky you met your match
And Rocky said, Doc it's only a scratch
And I'll be better   I'll be better doc as soon as I am able.

Now Rocky Raccoon he fell back in his room
Only to find Gideon's bible
Gideon checked out and he left it no doubt
To help with good Rocky's revival.

=========================================================================

                     Don't Pass Me By


Intro:
C
                       I

Verse:
C
Listen for your footsteps

Coming up the drive
F
Listen for your footsteps

But they don't arrive
G
Waiting for your knock dear

On my old front door  I don't
F
Hear it  Does it mean you don't

love me any-
C
more                      I

Verse:
C
Hear the clock a-ticking

On the mantel shelf
F
See the hands a-moving

But I'm by myself         I
G
Wonder where you are tonight  And

Why I'm by myself  I don't

F
See you  Does it mean you don't

love me any-
C
more                      Don't

Chorus:

Pass me by, don't make me cry, don't make me blue  Cause you know
F
Darling I love only you  You'll never
C
Know it hurt me so  How I hate to see you go  Don't pass me by
G
                        Don't make me
F                                     C
Cry                                                          I'm

Verse:
C
Sorry that I doubted you

I was so unfair
F
You were in a car crash

And you lost your hair  You
G
Said that you would be late

About an hour or two  I said
F
That's alright I'm waiting here just

Waiting to hear from
C
You                            Don't

Chorus:

Pass me by, don't make me cry, don't make me blue  Cause you know
F
Darling I love only you  You'll never
C
Know it hurt me so  How I hate to see you go  Don't pass me by
G
                        Don't make me
F
Cry

Outro:

C                                                 G        C

One two three four five six seven eight (Drum Solo)              Don't
[ Tab from: http://www.guitaretab.com/b/beatles/59432.html ]
Pass me by, don't make me cry, don't make me blue  Cause you know
F
Darling I love only you  You'll never
C
Know it hurt me so  How I hate to see you go  Don't pass me
G
By                Don't make me
F
Cry

|F       |C       |        |F       |G       |Dm7/C  C|

=========================================================================


Why don't We Do It in the Road?

  			D
Why don't we do it in the road?

Why don't we do it in the road?
D7			G
Why don't we do it in the road?
G7			D7
Why don't we do it in the road?
A7
No one will be watching us,
G7			D7
Why don't we do it in the road?

Repeat three times

mhw8@cornell.edu


=========================================================================

I WILL

This song is in F, but the gutar shapes used are in E.  I
can't tell if a capo is used on the first fret, the guitars
are tuned up a step, or the tape has been altered.  But we
can play along by capoing the first fret and playing in E.
I have also included a version in F for those with capophobia.


      E       C#m7      F#m7       B7
Who knows how long I've loved you?
     E     C#m7      G#m
You know I love you still.
 E7     A      B7      C#m7   E
Will I wait a lonely lifetime?
        A      B7      E     A  B7 (with riff 1: see below)
If you want me to, I will.


     E   C#m7  Fm#7      B7
For if I ever  saw  you,
   E      C#m7      G#m
I didn't catch your name.
E7      A      B7     C#m7   E
But it never really mattered;
         A     B7       E   E7  (with riff 2)
I will always feel the same.


 A	   G#m	 C#m    (with riff 3)
Love you forever and forever,
F#m            B7         E    E7  (with riff 2)
Love you with all of my heart.
 A	   G#m	   C#m
Love you whenever we're together,   <--riff 4 played
 F#		      B7               during these
Love you when we're apart.          <--two lines


      E     C#m7   F#m7     B7
And when at last I find you,
      E        C#m7     G#m
Your song will fill the air.
 E7      A      B7    C#m7    A  E
Sing it loud so I can hear you,
         A   B7    C#m7    A  E
Make it easy to be near you,
          A        B7   C#m    A  E
For the things you do  endear you to me,
F#m	B7	C  (with riff 5)
Oh you know I will.


   E   E7 (with riff 6)
I will!

A	G#m    C#m
Mm mm mm mm mm mm mm mm mm,   <--riff 7 played behind this section
F#m7         B7    E
 Da da da da da da da.

----------------------------------------------------------------------------

riff 1:                                           riff 2:

  E                     A        B7                E          E7
|---0-------0-------------0--------0----------|  |---0-------------------|
|------2-------2-0-----------2--------2-0-----|  |------0-----3--2-0-----|
|--------1---------0h1---------2----------0h1-|  |--------1----------0h1-|
|---------------------------------------------|  |-----------------------|
|---------------------------------------------|  |-----------------------|
|---------------------------------------------|  |-----------------------|
|-0-------------------------------------------|  |-0---------------------|

riff 3:

  A   G#m  C#m        F#m   B7
|-----------------------------|
|-----------2----4--5---------|
|-2----1---------------2----4-|
|-----------------------------|
|-----------------------------|
|-----------------------------|
|-----------------------------|


riff 4:

  A   G#m  C#m        F#         B7
|---------------------------2----7--5--4--2-|
|-----------2----4--5-----------------------|
|-2----1---------------3---------8--6--4--2-|
|-------------------------------------------|
|-------------------------------------------|
|-------------------------------------------|
|-------------------------------------------|

riff 5:

  C
|--0-------0----------0-------0---------|
|-----3-1-----3-1--------3-1-----3-1----|
|-----------------0-------------------0-|
|---------------------------------------|
|---------------------------------------|
|---------------------------------------|
|---------------------------------------|


riff 6:

 E                       E        E7
|----0--------0------------0------------------|
|------2p0------2-0----------0-----3--2-0-----|
|----------1--------0h1--------1----------0h1-|
|---------------------------------------------|
|---------------------------------------------|
|---------------------------------------------|
|-0----------------------0--------------------|


riff 7:

   A   G#m  C#m       F#m   B7   E
|----------------------------------|
|-----------2----4--5--------------|
|-2----1---------------2----4----4-|
|----------------------------------|
|----------------------------------|
|----------------------------------|

--------------------------------------------
Here it is in F:

      F        Dm7       Gm7       C7
Who knows how long I've loved you?
     F      Dm7      Am
You know I love you still
 F7     Bb      C7      Dm7    F
Will I wait a lonely lifetime?
        Bb     C7      F   Bb  C7
If you want me to, I will.

     F    Dm7  Gm7    C7
For if I ever  saw you
   F      Dm7        Am
I didn't catch your name
F7      Bb     C7    Dm7     F
But it never really mattered
         Bb    C7       F
I will always feel the same

 Bb         Am	 Dm
Love you forever and forever,
Gm             C7         F    F7
Love you with all of my heart.
 Bb	     Am    Dm
Love you whenever we're together,
 G		     C7
Love you when we're apart.

     F       Dm7    Gm7     C7
And when at last I find you,
      F         Dm7      Am
Your song will fill the air;
 F7      Bb     C7     Dm     Bb F
Sing it loud so I can hear you,
         Bb  C7    Dm      Bb F
Make it easy to be near you,
          Bb       C7    Dm  Bb  F
For the things you do endear you to me,
Bb	C7     Db
Oh you know I will.

   F       F7
I will!

Bb       A     Dm
Mm mm mm mm mm mm mm mm mm,
Gm7         C7     F
Da da da da da da da.

transcribed by Chris Sears
cts@mail.utexas.edu


=========================================================================

Julia


This song is capoed in the 2nd fret and played in C. The finger-picking
pattern is easy once you get the hang of it (it is the same
for all chords).  Once you "get" it you can also play Octopus's Garden
and Dear Prudence; they use the same pattern!  A hint: the thumb plays all
notes on the bottom three strings and uses an alternating pattern
that never changes throughout the song. It goes 5th string, 4th string,
6th string, 4th string and then repeats ad finitum. I suggest practicing the
picking with only the thumb till you get the rhythm down.  The right-hand
second finger (middle finger) plays all the notes on the 1st and second
strings (if you want to use your right-hand third finger (ring) to play
notes on the 1st string, that works too).  The right-hand first finger
(index) plays all notes on the third string.  Now learn the pattern!
Also, notice the fingering change whenever John plays a C.  The left-hand
third finger moves from the 5th string to the 6th in the middle of the chord.
Good luck!

[Verses: The first two lines only occur in verse 1 and 4.  For the other
         verses, skip down.]

 CaddG            Am7              Em

|--3---------------3----------------3----------------3---------------|
|------------1---------------1-----------------0----------------0----|
|--------0---------------2----------------0----------------0---------|
|------2-------2-------2-------2--------2--------2-------2--------2--|
|--3---------------0----------------2----------------2---------------|
|----------3---------------0----------------0----------------0-------|

1. Half of what I say is  meaning  less,
4. When I cannot  sing my heart,


 CaddG            Am7              Em                G

|--3---------------3----------------3----------------3---------------|
|------------1---------------1-----------------0----------------3----|
|--------0---------------2----------------0----------------0---------|
|------2-------2-------2-------2--------2--------2-------0--------0--|
|--3---------------0----------------2----------------2---------------|
|----------3---------------0----------------0----------------0-------|


1. But I say it  just to reach you Ju-                             lia
4. I  can only   speak  my  mind,  Ju-                             lia


 CaddG            Am7             Gm7             Gm7(add9)

|--3---------------3----------------3----------------5---------------|
|------------1---------------1-----------------3----------------3----|
|--------0---------------2----------------3----------------3---------|
|------2-------2-------2-------2--------3--------3-------3--------3--|
|--3---------------0----------------5----------------5---------------|
|----------3---------------0----------------3----------------3-------|

1.  Ju-             lia            Ju-             lia,
2.  Ju-             lia,           sea        shell eyes,
3.  Ju-             lia,           Ju-             lia,
4.  Ju-             lia,           Sleep      ing sand,
5.                                 Mmm

   A                             F7(add9)           Fm7

|--5---------------5----------------3----------------4---------------|
|------------5---------------5-----------------1----------------1----|
|--------6---------------6----------------2----------------1---------|
|------7-------7-------7-------7--------1--------1-------1--------1--|
|--7---------------7----------------3----------------3---------------|
|----------5---------------5----------------1----------------1-------|

1. Ocean         child             calls             me.
2. Win       dy  smile             calls             me.
3. Mor-   ning    moon             touch             me.
4. Si     lent   cloud             touch             me.
5.                                 calls             me. (go to outro)

 CaddG            Am7              Em                G

|--3---------------3----------------3----------------3---------------|
|------------1---------------1-----------------0----------------3----|
|--------0---------------2----------------0----------------0---------|
|------2-------2-------2-------2--------2--------2-------0--------0--|
|--3---------------0----------------2----------------2---------------|
|----------3---------------0----------------0----------------0-------|

1. So  I sing this song of love,    Ju-                       lia (go to verse 2)
2. So  I sing this song of love,    Ju-                       lia (play C 2x, then go to bridge)
3. So  I sing this song of love,    Ju-                       lia (play C 2x, then go to verse 4)
4. So  I sing this song of love,    Ju-                       lia (go to verse 5)


[bridge]

  Bm                              CaddG

|--2---------------2----------------3----------------3---------------|
|------------3---------------3-----------------1----------------1----|
|--------4---------------4----------------0----------------0---------|
|------4-------4-------4-------4--------2--------2-------2--------2--|
|--2---------------0----------------3----------------3---------------|
|----------2---------------2----------------3----------------3-------|

     Her hair of floating sky is shimmering,


  Am7             Am6              Em7              Em6

|--3---------------2-------------------------------------------------|
|------------1---------------1------3----------3-----2----------2----|
|--------2---------------2----------------0----------------0---------|
|------2-------2-------2-------2--------2--------2-------2--------2--|
|--0---------------0----------------2----------------2---------------|
|----------0---------------0----------------0----------------0-------|

  Glimmering,                       in     the      sun


 Em(addC)         Em

|---------------------------------|
|--1---------1-----0---------0----|
|--------0---------------0--------|
|------2-------2-------2-------2--|   (To verse 3)
|--2---------------2--------------|
|--------------------------0------|

[outro]

 CaddG            Am7              Em                C

|--3---------------3----------------3----------------3---------------|
|------------1---------------1-----------------0----------------0----|
|--------0---------------2----------------0----------------0---------|
|------2-------2-------2-------2--------2--------2-------2--------2--|
|--3---------------0----------------2----------------3---------------|
|----------3---------------0----------------0----------------3-------|

   So I sing this song of love for Ju-              lia


  Em               C               Em                G                 Cmaj7

|--3---------------3----------------3----------------3-------------------0-|
|------------0---------------1-----------------0----------------0--------0-|
|--------0---------------0----------------0----------------0-------------0-|
|------2-------2-------2-------2--------2--------2-------0--------0------2-|
|--2---------------3----------------2----------------2-------------------3-|
|----------2---------------3----------------0----------------0-----------3-|

  Ju-             lia              Ju-                                 lia


The Beatles "White Album"
Album Disk Two

1. Birthday
2. Yer Blues
3. Mother Nature's Son
4. Everybody's Got Something To Hide Except Me And My Monkey
5. Sexy Sadie
6. Helter Skelter
7. Long, Long, Long
8. Revolution 1
9. Honey Pie
10. Savoy Truffle
11. Cry Baby Cry
12. Revolution 9 (no tab)
13. Good Night


==========================================================================

Birthday


Intro and verse riff.

3/8 means slide from fret 3 to fret 8

E-----------------------------------------------------------------------|
B-----------2----3----3/8----7---5--------------------------------------|
G--2---2------------------------------2---------------------------------|
D-----------------------------------------------------------------------|
A-----------------------------------------------------------------------|
E-----------------------------------------------------------------------|


E--------------------------------------------------------------------|
B------------2----3----3/8----7---5----------------------------------|
G--2---2--------------------------------2----------------------------|
D--------------------------------------------------------------------|
A--------------------------------------------------------------------|
E--------------------------------------------------------------------|


E------------------5---5/8----7----5----------------------------------|
B-------------6-------------------------------------------------------|
G--7----7-------------------------------7-----------------------------|
D---------------------------------------------------------------------|
A---------------------------------------------------------------------|
E---------------------------------------------------------------------|


E-------------------------------------------------------------------|
B---------------2----3----3/8----7----5-----------------------------|
G---2----2-----------------------------------2----------------------|
D-------------------------------------------------------------------|
A-------------------------------------------------------------------|
E-------------------------------------------------------------------|


E--------------------7----7/10----9----7-------------------------------|
B-------------9--------------------------------------------------------|
G---9---9------------------------------------7-------------------------|
D----------------------------------------------------------------------|
A----------------------------------------------------------------------|
E----------------------------------------------------------------------|


E----------------------------------------------------------------------|
B--------------2----3----3/8----7----5---------------------------------|
G---2----2----------------------------------2--------------------------|
D----------------------------------------------------------------------|
A----------------------------------------------------------------------|
E----------------------------------------------------------------------|


A
You say it's your birthday
A
It's my birthday too yeah
D
They say it's your birthday
A
We're gonna have a good time
E
I'm glad it's your birthday
A
Happy birthday to you

E
Yes we're going to a party party
E
Yes we're going to a party party
E
Yes we're going to a party party
C          G
I would like you to dance
C                            G
(Birthday)  Take a cha - cha -cha  chance
C                             G
(Birthday)  I would like you to dance
C                G
(Birthday)  Dance
E
     instrumental

A
You say it's your birthday
A
It's my birthday too yeah
D
They say it's your birthday
A
We're gonna have a good time
E
I'm glad it's your birthday
A
Happy birthday to you


(Fades out with the riff)


==========================================================================

	                     -Yer Blues-

Chorus:

1. Yes I'm
   lonely                wanna  die                   Yes I'm
2. morning               wanna  die                   In the
Gt.1
  E
E|----------------------------|------------------------------|
B|----------------------------|------------------------------|
G|----------------------------|------------------------------|
D|-2-------5vvv-2-------------|-2-------5vvvv-2--------------|
A|----------------------------|------------------------------|
E|----------------------------|------------------------------|
Gt.2
E|----------------------------|------------------------------|
B|---3333---------------------|---3333-----------------------|
G|---4444---------------------|---4444-----------------------|
D|----------------------------|------------------------------|
A|----------------------------|------------------------------|
E|----------------------------|------------------------------|

   lonely                wanna  die                      If I
   evening               wanna  die                      If I
Gt.1
  A7                           E
E|----------------------------|------------------------------|
B|----------------------------|------------------------------|
G|----------------------------|------------------------------|
D|---------5vvvvv-7-----------|---------5vvvv-2--------------|
A|----------------------------|------------------------------|
E|----------------------------|------------------------------|
Gt.2
E|----------------------------|------------------------------|
B|---3333---------------------|---3333-----------333333333---|
G|---4444---------------------|---4444-----------444444444---|
D|----------------------------|------------------------------|
A|----------------------------|------------------------------|
E|----------------------------|------------------------------|

   ain't dead already          Oooh girl you know the reason
   ain't dead already          Oooh girl you know the reason
Gt.1
  G                            B7
E|----------------------------|-----7---5---4---3/2----------|
B|----------------------------|---------5---4---3/2----------|
G|-------------------------x--|-/8------6---4---3/2----------|
D|-----------------7(9)-------|------------------------------|
A|-----------5p7--------------|------------------------------|
E|-3----7---------------------|------------------------------|
Gt.2
E|----------------------------|-----7---5---4---3/2----------|
B|----------------------------|------------------------------|
G|-------------------------x--|-/8------6---4---3-2----------|
D|----------------------------|------------------------------|
A|----------5------5p7--------|------------------------------|
E|-3/7------------------------|------------------------------|

1:                                2:

  why                   In the       why                    My
Gt.1                              Gt.1
  E      A     E/B     B7           E      A     E/B     B7
E|----------------------------|   E|----------------------------|
B|------5---------------------|   B|------5---------------------|
G|----4-----------------------|   G|----4-----------------------|
D|-------5vvv-2---0-----------|   D|-------5vvv-2---0-----------|
A|------------------2-2-------|   A|------------------2-2-------|
E|----------------------------|   E|----------------------------|
Gt.2                              Gt.2
E|----------------------------|   E|----------------------------|
B|----------------------------|   B|----------------------------|
G|-------2--------------------|   G|-------2--------------------|
D|-2-----2-----2--0---4---4-4-|   D|-2-----2-----2--0---4---4-4-|
A|-2-----0-3h4------2-2---2-2-|   A|-2-----0-3h4------2-2---2-2-|
E|-0-3h4----------------------|   E|-0-3h4----------------------|
  go back to the top...

Verse:

1. mother was of the sky   My  father was of the earth    But
2. eagle picks mye eye     The worm he licks my bone      I
3. Black cloud crossed my mind Blue mist round my soul
Gt.1
E|----------------------------|------------------------------|
B|----------------------------|------------------------------|
G|----------------------------|------------------------------|
D|---------5vvv-2-------------|------------------------------|
A|-7------------------------5-|-/7-------------------------5-|
E|----------------------------|------------------------------|
Gt.2
E|----------------------------|------------------------------|
B|---------------------3------|-----------------------3------|
G|---------------------2------|-----------------------2------|
D|-2-------------------4------|-2---------------------4------|
A|-2--------------------------|-2----------------------------|
E|-0--------------------------|-0----------------------------|

                                 1, 2:
   I am of the universe    And     you know what it's worth
   feel so suicidal  Just like     Dylan's Mister Jones
   Feel so suicidal
Gt.1                             Gt.1
E|----------------------------|  E|-12-12-12-12-12-12-12-12-12-|
B|----------------------------|  B|-12-12-12-12-12-12-12-12-12-|
G|----------------------------|  G|-13-13-13-13-13-13-13-13-13-|
D|----------------------------|  D|----------------------------|
A|-/7-------------------------|  A|----------------------------|
E|----------------------------|  E|----------------------------|
Gt.2                             Gt.2
E|----------------------------|  E|-7(9)--------------5p3------|
B|----------------------------|  B|----------------------------|
G|----------------------------|  G|----------------------------|
D|-2--------------------------|  D|----------------------------|
A|-2--------------------------|  A|----------------------------|
E|-0--------------------------|  E|----------------------------|

   I'm lonely            wanna  die                   If I
       Lonely            wanna  die                   If I
Gt.1
  A                            E
E|----------------------------|------------------------------|
B|----------------------------|------------------------------|
G|----------------------------|------------------------------|
D|---------5vvv-5-------------|---------5vvvv-2--------------|
A|----------------------------|------------------------------|
E|----------------------------|------------------------------|
Gt.2
E|----------------------------|------------------------------|
B|---3333--------33333--333---|--3-------333333--------33333-|
G|---4444--------44444--444---|--4-------444444--------44444-|
D|----------------------------|------------------------------|
A|----------------------------|------------------------------|
E|----------------------------|------------------------------|

   ain't dead already          Oooh girl you know the reason
   ain't dead already          Oooh girl you know the reason
Gt.1
  G                            B7
E|----------------------------|-----7---5---4---3/2------------|
B|----------------------------|---------5---4---3/2------------|
G|----------------------------|-/8------6---4---3/2------------|
D|-----------------7(9)7-------|-------------------------------|
A|-----------5p7--------------|--------------------------------|
E|-3----7---------------------|--------------------------------|
Gt.2
E|----------------------------|-----7---5---4---3/2----------|
B|----------------------------|------------------------------|
G|----------------------------|-/8------6---4---3-2----------|
D|----------------------5-----|------------------------------|
A|----------5------5p7-----7--|------------------------------|
E|-3/7------------------------|------------------------------|

                                   3:
  why                      The       hate my rock n' roll    wanna
  why
Gt.1                               Gt.1
  E      A     E/B     B7
E|----------------------------|    E|-12-12-12-12----------------|
B|----------------------------|    B|-12-12-12-12-10(12)--8------|
G|----------------------------|    G|-------------------------9--|
D|-----5-5--5-5-5---0---------|    D|----------------------------|
A|--------------------2-2--2--|    A|----------------------------|
E|----------------------------|    E|----------------------------|
Gt.2
E|----------------------------|    E|----------------------------|
B|----------------------------|    B|----------------------------|
G|-------2--------------------|    G|----------------------------|
D|-2-----2-----2--0---4---4-4-|    D|-2-2-2-2-2-2-2-2-2-2-2-2-2--|
A|-2-----0-3h4------2-2---2-2-|    A|-2-2-2-2-2-2-2-2-2-2-2-2-2--|
E|-0-3h4----------------------|    E|-0-0-0-0-0-0-0-0-0-0-0-0-0--|

Bridge:

  die                               yeah            wanna die
Gt.1
  A
E|----------------------------|------------------------------|
B|----------------------------|------------------------------|
G|--------9-7---7-----9----9--|------------------------------|
D|------------9---------------|---------9-7-5-------5---5----|
A|----------------------------|---------------7---7----------|
E|----------------------------|------------------------------|
Gt.2
E|----------------------------|------------------------------|
B|----------------------------|------------------------------|
G|--------------------------2-|--------------------------2---|
D|-2---2--2---2--2---2--2h4---|-2---2--2---2--2---2--2h4-----|
A|-0---0--3---4---------------|-0---0--3---4-----------------|
E|----------------------------|------------------------------|

                                                         If I
Gt.1
  E
E|----------------------------|-------------------------------|
B|----------------------------|-------------------------------|
G|---------9-7----------------|----------9-7------------------|
D|-------9-----9----7-5-------|------9-9--------9--7----5-----|
A|-7-----------------------7--|-------------------------------|
E|----------------------------|-------------------------------|
Gt.2
E|----------------------------|------------------------------|
B|----------------------------|------------------------------|
G|----------------------------|------------------------------|
D|--------------------------2-|--------------------------2---|
A|-2---2--2---2--2---2--2h4---|-2---2--2---2--2---2--2h4-----|
E|-0---0--3---4---------------|-0---0--3---4-----------------|

  ain't dead already          Oooh girl you know the reason why
Gt.1
  G                            B7
E|------------3---------------|------------------------------|
B|----------3---6-----3-----6-|------------------------------|
G|--------x-------------------|----------4--2----------------|
D|----------------------------|-------4------------------2---|
A|----------------------------|-2-------------------4--------|
E|----------------------------|------------------------------|
Gt.2
E|----------------------------|------------------------------|
B|----------------------------|------------------------------|
G|----------------------------|------4---4--2-----2------4---|
D|--------------------------5-|---------------------4--------|
A|----------------5---5-5-7---|-2---2------------------------|
E|-3---3--6----7--------------|------------------------------|

  Gt.1
  E             A              E/B           B7
E|----------------------------|------------------------------|
B|----------------------------|------------------------------|
G|------------9-7-------------|--------------------------12--|
D|--------x-9--------9-7----5-|--------------------------12--|
A|----------------------------|-7----5-----------------------|
E|-0--------------------------|--------7----7-------7--------|
Gt.2
E|----------------------------|--------2----2-2--------------|
B|----------------------------|--------0----0-0--------------|
G|----------------------------|--------2----2-2--------------|
D|--------------------------0-|-2------1----1-1--------------|
A|---------------0----0-0h2---|--------2----2-2--------------|
E|-0----0-3----4--------------|------------------------------|

  Okay, give me a break, I can't tab this solo!  Some day, I'll put
  it up, probably, but it is like a minute and a half of NOISE, so
  for right now, improvise during this section.  Here are the
  chords:  4 measures of E
           2 measures of A
           2 measures of E
           1 measure of G
           1 measure of B7
           1 measure of E then A
           1 measure of E/B then B7
           REPEAT until the end of the B7
           measure, and play this:

Chorus:

   Yes I'm
   lonely                wanna  die                   Yes I'm

Gt.1
  E
E|----------------------------|------------------------------|
B|----------------------------|------------------------------|
G|----------------------------|------------------------------|
D|-2-------5vvv-2-------------|-2-------5vvvv-2--------------|
A|----------------------------|------------------------------|
E|----------------------------|------------------------------|
Gt.2
E|----------------------------|------------------------------|
B|---3333---------------------|---3333-----------------------|
G|---4444---------------------|---4444-----------------------|
D|----------------------------|------------------------------|
A|----------------------------|------------------------------|
E|----------------------------|------------------------------|

   lonely                wanna  die                      If I
Gt.1
  A7                           E
E|----------------------------|------------------------------|
B|----------------------------|------------------------------|
G|----------------------------|------------------------------|
D|---------5vvvvv-7-----------|---------5vvvv-2--------------|
A|----------------------------|------------------------------|
E|----------------------------|------------------------------|
Gt.2
E|----------------------------|------------------------------|
B|---3333---------------------|---3333-----------333333333---|
G|---4444---------------------|---4444-----------444444444---|
D|----------------------------|------------------------------|
A|----------------------------|------------------------------|
E|----------------------------|------------------------------|

   ain't dead already          Oooh girl you know the reason
Gt.1
  G                            B7
E|----------------------------|-----7---5---4---3/2----------|
B|----------------------------|---------5---4---3/2----------|
G|-------------------------x--|-/8------6---4---3/2----------|
D|-----------------7(9)-------|------------------------------|
A|-----------5p7--------------|------------------------------|
E|-3----7---------------------|------------------------------|
Gt.2
E|----------------------------|-----7---5---4---3/2----------|
B|----------------------------|------------------------------|
G|-------------------------x--|-/8------6---4---3-2----------|
D|----------------------------|------------------------------|
A|----------5------5p7--------|------------------------------|
E|-3/7------------------------|------------------------------|

Outro:

  why                   Yes I'm lonely                  wanna
Gt.1
  E      A     E/B     B7
E|----------------------------|------------------------------|
B|------5---------------------|------------------------------|
G|----4-----------------------|------------------------------|
D|-------5vvv-2---0-----------|-2------5vvvvv-2--------------|
A|------------------2-2-------|------------------------------|
E|----------------------------|------------------------------|
Gt.2
E|----------------------------|------------------------------|
B|----------------------------|---3333-----------------------|
G|-------2--------------------|---4444-----------------------|
D|-2-----2-----2--0---4---4-4-|------------------------------|
A|-2-----0-3h4------2-2---2-2-|------------------------------|
E|-0-3h4----------------------|------------------------------|

  die                Yes I'm...      (Fade out)
Gt.1
E|----------------------------|
B|----------------------------|
G|----------------------------|
D|-2--------5vvvvv-2----------|
A|----------------------------|
E|----------------------------|
Gt.2
E|----------------------------|
B|---3333---------------------|
G|---4444---------------------|
D|----------------------------|
A|----------------------------|
E|----------------------------|

============================================================================

	Mother Nature's Son

 D     Dsus4               D    Bm              E
Born a poor young country boy  Mother Nature's son
 A                                            D    Dm  G  D
All day long I'm sitting singing songs for everyone

 D   Dsus4              D      Bm             E
Sit beside a mountain stream  See her waters rise
   A                                         D   Dm  G  D
Listen to the pretty sound of music as she flies

      D           G           D
Do do do do do do do do do do do
D           G           D   Dmaj7  D7
do do do do do do do do do
                  G     Gm
Do do do do do do do do
            D
Yeah yeah yeah

 D      Dsus4            D      Bm             E
Find me in my field of grass  Mother Nature's son
   A                                          D  Dm  G  D
Swaying daisies sing a lazy song beneath the sun

      D           G           D
Do do do do do do do do do do do
D           G           D   Dmaj7  D7
do do do do do do do do do
                  G     Gm
Do do do do do do do do
            D
Yeah yeah yeah

D  Dsus4  D  Bm  E  A  D  Dm  G  D

D  Dm   G              D
Oh    Mother Nature's Son


Intro:
E --2-3-2-1-3-5-3-5-3-2----------------------------------------|
B --3-----3-----0-----3----------------------------------------|
G --2-----2-----0-----2----------------------------------------|
D --0-----0-----0-----0----------------------------------------|
A -------------------------------------------------------------|
E -------------------------------------------------------------|


Middle Lead (play along with the "do do do" part):
E ----0-2-------0---2---3-2-0---2---2-------0---2---3-2-0---2--|
B --3---3---3---3---3---0---0-3-3---3---3---3---3---0---0-3-3--|
G --2-------2---------------------------2----------------------|
D --0-----0---0---0---0-----------0---0---0---0---0------------|
A -------------------------------------------------------------|
E -------------------------------------------------------------|

E ---2-2---0-2-3-2-2-0------------------------------------------|
B ---2-1-3-------------3----------------------------------------|
G ---2-2---------------0----------------------------------------|
D ---0-0---------------0----------------------------------------|
A ---------------------2----------------------------------------|
E ---------------------3----------------------------------------|


 -------------------------------------------------------------------------------------

MOTHER NATURE'S SON-

INTRO:
 (slowly pluck these)           (strum a bit on each of
these)
E ---2---2---2------------------5--3--0--3p2--0h2-2h3-0h2-0h2---|
B ---3---3---3------------------3--3--3--3-3--3-3-3-3-3-3-3-3---|
G -4---2---1--------------------2--2--2--2-2--2-2-2-2-2-2-2-2---|
D ------------------------------0--0--0--0-0--0-0-0-0-0-0-0-0---|
A --------------------------------------------------------------|
E -------------0------------------------------------------------|
               (let ring, then
              slap guitar a bit)

 D      G/D               D    Bm      D       E9  (hit low E string)
Born a poor young country boy  Mother Nature's son
 A  D/A   A  D/A   A      D/A     A       D/A   D   Dm  G/D  D
All day long I'm sitting singing songs for everyone
D  Dm  G/D  D

 D   G/D                D      Bm      D      E9   (riff)
Sit beside a mountain stream  See her waters rise
 A  D/A A D/A   A     D/A       A   D/A      D   Dm  G/D  D
Listen to the pretty sound of music as she flies

             G/D          D
Do do do do, do-yoo do do do
D            G/D          D  Dmaj7  D7
do do do do, do-yoo do do do
D7sus4  D7 G/D Gm/D  D
N

Find me in my field of grass  Mother Nature's son  (riff)
Swaying daisies sing a lazy song beneath the sun

             G/D          D
Do do do do, do-yoo do do do
D            G/D          D  Dmaj7  D7
do do do do, do-yoo do do do
         D7sus4 D7    G/D Gm/D           D
Do do do do     do do do     yeah yeah yeah

(repeat verse chords while singing/humming the tune)

D  Dm   G/D            D7
Oh    Mother Nature's Son


RIFF:
D -------2---|
A -----2-----|
E -0-4-------|

G/D:    x x 0 0 0 3   E9:  x x 0 1 3 2
D7sus5: x x 0 2 1 3   D/A: x 0 4 2 3 0


Here are the chords for Mother Nature's Son by the Beatles

D        Dsus4                        D
Born a poor  young country boy
Bm        A           G
Mother Nature's Son.
A   D    A    D   A         D         A       A7sus4   D
All day long I'm sitting singing songs for everyone.
D   F   G   D    F   G

Sit beside a mountain stream
see her waters rise.
Listen to the pretty sound of music as she flies.

D        A  D  G            D
Du du du du du du du du  2X

D  Dmaj7  D7      D7sus2  G     Gm       D
                        du du          du                Yeah, yeah,

Find me in my field of grass
Mother Natures Son.
Swaying daisies sing a lazy song beneath the sun.
Mother Natures Son.


==========================================================================

        Everybody's Got Something To Hide Except For Me And My Monkey

Intro:
-|--4--5--9-----4--5--9-----4--5--9-----4--5--9---------------------|
-|--5--5--10----5--5--10----5--5--10----5--5--10--------------------|
-|--4--4--9-----4--4--9-----4--4--9-----4--4--9---------------------|
-|------------------------------------------------------------------|
-|------------------------------------------------------------------|
-|------------------------------------------------------------------|

Verse:
 E
Come on, come on, come on, come on

Come on it's such a joy, come on, it's such a joy

Come on let's make it easy, come on let's make it easy
         A             D
Make it easy, make it easy
      B7                                                 E  D  G  E  G  D
Everybody's got something to hide except for me and my monkey


While the verses are going on, the rhythm guitar repeats the intro
parts over and over with slight rhythmic variations.  The
lead guitar does dozens of variations along the following lines:
Listen closely and hear 1001 ways to play those few notes.

-|------------------------------------------------------------------|
-|------------------------------------------------------------------|
-|------------------------------------------------------------------|
-|-----5--------7--5-------------------------etc.-------------------|
-|--7-----5--7-----------5--7--7b(9)--5--7---etc.-------------------|
-|--------------------7----------------------etc.-------------------|

All guitars should should, of course, do the boogie-woogie shuffle
starting with the A chord:

             A
-|------------------------------------------------------------------|
-|------------------------------------------------------------------|
-|------------------------------------------------------------------|
-|------------------------------------------------------------------|
-|-----------7--7--9--9--7--7--9--9--7--7--9--9--7--7--9--9---------|
-|-----------5--5--5--5--5--5--5--5--5--5--5--5--5--5--5--5---------|
   Take it easy

             D
-|------------------------------------------------------------------|
-|------------------------------------------------------------------|
-|------------------------------------------------------------------|
-|-----------7--7--9--9--7--7--9--9--7--7--9--9--7--7--9--9---------|
-|-----------5--5--5--5--5--5--5--5--5--5--5--5--5--5--5--5---------|
-|------------------------------------------------------------------|
   Take it easy

         B7
-|------------------------------------------------------------------|
-|------------------------------------------------------------------|
-|------------------------------------------------------------------|
-|-------4--4--6--6--4--4--6--6--4--4--6--6--4--4--6--6-------------|
-|-------2--2--2--2--2--2--2--2--2--2--2--2--2--2--2--2-------------|
-|------------------------------------------------------------------|
   Everybody's got something to hide except for me and my ...

.. and here's the fun part.  Cool the way the chords "turn around"
   in the second phrase:

     E          D                G      E           G               D
-|-------------10b(12)--b(12)10-------------------15b(17)--b(17)15-------|
-|--/10-----8--------------------8~--b(17)15--12-------------------------|
-|-------9----------------------------------------------------------14~--|
-|-----------------------------------------------------------------------|
-|-----------------------------------------------------------------------|
-|-----------------------------------------------------------------------|
 ..Monkey

==========================================================================
Sexy Sadie

CHORDS:
        G 3-5-5-4-3-3          F# 2-4-4-3-2-2           Am 5-7-7-5-5-5---|
        C X-3-2-0-1-0           F 1-3-3-2-1-1           Bm 7-9-9-7-7-7---|
        D 0-0-0-3-2-3         A#m X-2-4-4-3-4           C2 8-10-10-9-8-8-|

	Play the little arpeggio with chord:

	 A#m
	E-2----------2-------|
	B-3--------3---3-----|
	G-4------4-------4---|
	D-4----4-----------4-|
	A-2------------------|
	E--------------------|


INTRO: G C D G F# F D

       G     F#    A#m
        Sexy Sadie    what have you done

       C           D             G    F#
        You made a  fool of everyone

       C           D             G    F#
        You made a  fool of everyone

             F       D
        Sexy Sadie ooh what have you done


        Sexy Sadie you broke the rules
        You layed it down for all to see
        You layed it down for all to see
        Sexy Sadie oooh you broke the rules


       G                  Am                      Bm     C2
        One sunny day the world was waiting for a lover

       G           Am                  Bm     C2
        She came along to turn on everyone

       Am              G#               G
        Sexy Sadie the greatest of them all


        Sexy Sadie how did you know
        The world was waiting just for you
        The world was waiting just for you
        Sexy Sadie oooh how did you know

        Sexy Sadie you'll get yours yet
        However big you think you are
        However big you think you are
        Sexy Sadie oooh you'll get yours yet

        We gave her everything we owned just to sit at her table
        Just a smile would lighten everything
        Sexy Sadie she's the latest and the greatest of them all

        G F# A#m C D G F#

       C           D            G    F#
        She made a fool of everyone

       F           D
        Sexy Sadie

        G F# A#m C D G F#

       C        D                 G    F#
        However big you think you are

       F           D
        Sexy Sadie

        G F# A#m C D G F# F D ... (and fade)

==========================================================================
	Helter Skelter


Intro:

-|-----0--(repeat)--------------------------------------------------|
-|--12\3--(repeat)--------------------------------------------------|
-|------------------------------------------------------------------|
-|------------------------------------------------------------------|
-|------------------------------------------------------------------|
-|------------------------------------------------------------------|
           When I get to the bottom I go back to the top of the

-|-----0--(repeat)--------------------------------------------------|
-|-----2--(repeat)--------------------------------------------------|
-|------------------------------------------------------------------|
-|------------------------------------------------------------------|
-|------------------------------------------------------------------|
-|------------------------------------------------------------------|
    slide, where I stop and I turn and I go for a

                                                  G
-|-----0--(repeat)--------------------------------------------------|
-|-----1--(repeat)--------------------------------------------------|
-|------------------------------------------------------------------|
-|------------------------------------------------------------------|
-|------------------------------------------------5--5--6--6--------|
-|------------------------------------------------3--3--3--3--------|
    ride, till I get to the bottom and I see you again.

                           E
-|------------------------------------------------------------------|
-|------------------------------------------------------------------|
-|------------------------------------------------------------------|
-|------------------------------------------------------------------|
-|--5--5--6---------6------2--2--2--2--3\2--2--2--2-----------------|
-|--3--3--3---------3------0--0--0--0--1\0--0--0--0-----------------|
          Yeah yeah  yeah!


Verse:

     E
Well do you don't you want me to make you

I'm coming down fast but don't let me break you
                                 G
Tell me tell me tell me come on tell me the answer
          A                                E
Well you may be a lover but you ain't no dancer.


Chorus:
            A
-|------------------------------------------------------------------|
-|------------------------------------------------------------------|
-|------------------------------------------------------------------|
-|----------2---2---4---4--5--4--2----------------------------------|
-|----------0---0---0---0-----------5--4--2--0----------------------|
-|------------------------------------------------------------------|
    Well, Helter Skelter
     E
-|------------------------------------------------------------------|
-|------------------------------------------------------------------|
-|------------------------------------------------------------------|
-|------------------------------------------------------------------|
-|---2---2---4---4--5--4--2-----------------------------------------|
-|---0---0---0---0-----------5--4--2--0-----------------------------|
    Helter skelter
     A                                    E
-|------------------------------------------------------------------|
-|--------------------------------------------5b(7)--3--5-----------|
-|------------------------------------------------------------------|
-|---2---2---4---4--5--4--2-----------------------------------------|
-|---0---0---0---0-----------5--4--2--0-----------------------------|
-|------------------------------------------------------------------|
    Helter skelter                        Yeah

So much for verses and choruses.  The rest are pretty much the same,
except that the rest of the verses hit the G chord a little sooner
(at the beginning of the third line of the verse).

Here's the guitar solo in the middle:

    E                          A                      E
-|----------------------7--7--15b(17)--15b(17)--b(17)15-------------|
-|----------------------0--0----------------------------------------|
-|----------------------9--9----------------------------------------|
-|------------------------------------------------------------------|
-|------------------------------------------------------------------|
-|------------------------------------------------------------------|
    'Cos here she comes
                                  A                                    E
-|--------------------------------------------------------------------------|
-|--b(17)15b(17)15---------------13b(14)------------------b(17)15-----------|
-|------------------b(14)12---------------b(14)12b(14)12-----------12-------|
-|---------------------------14----------------------------------------14~--|
-|--------------------------------------------------------------------------|
-|--------------------------------------------------------------------------|

Later, there's a neat riff in one of the last verses.  I think it
comes right after "will you won't you want me to make you" or something
like that.  This is a cool riff with that looonnnng slide.

-|--12--15b(17)--b(17)15--12------12----------------------------------------|
-|----------------------------15------15\10-----10b(12)--b(12)10--8---------|
-|-------------------------------------------9-----------------------7--9---|
-|--------------------------------------------------------------------------|
-|--------------------------------------------------------------------------|
-|--------------------------------------------------------------------------|

As the song fades into the first ending, there are some nice bend releases,
while the lyrics repeat "coming down fast":

-|--b(17)15------------------------------------------------------------|
-|-----------b(17)15---------------------------------------------------|
-|--------------------b(16)14------------------------------------------|
-|-----------------------------b(14)12---------------------------------|
-|--------------------------------------b(14)12------------------------|
-|---------------------------------------------------------------------|

==========================================================================

Long.long,long...

Capo 3rd Fret

Intro

  Em           G        Em          D         A
E---------------------------------------------0-0-0-0-0-0--|
B-----------------------------------------3---2-2-2-2-2-2--|
G-----------h--------------------h-----2------2-2-2-2-2-2--|
D-------h--0-2-------2-------h--0-2-0---------2-2-2-2-2-2--|
A---h--0-2--------0------h--0-2---------------0-0-0-0-0-0--|
E--0-3---------3--------0-3--------------------------------|

Verses
(Capo 3rd Fret)

(Bb)G-320003
(Am)F#m-244222
(Gm)Em-022000
(F)D-xx0232
(C)A-x02220
(C7)A7-x02020

            G      F#m  Em     D
It's been a long   long   long time

E-------------------2--|
B-------------------3--|
G----------h-----2-----|
D------h--0-2-0--------|
A--h--0-2--------------|
E-0-3------------------|

A                     Em         D   A
How could I ever have lost you

Em     D      A    A7
When I  loved you

2nd Verse

It took a long long long time

Now I'm so happy I found you

How I love you

Bridge
G          D        A        Em
So many tears I was searching

G       D           A   Em  G  A  A
So many tears I was wasting oh oh

3rd verse
Now I can see you be you

how can I ever misplace you

how I want you

Coda
Em    D    A
oh I  love you

Em                D          Bb
  you know that I need you

Em    D    A    A
Ooh I love you

==========================================================================
              Revolution
          (Lennon/McCartney)


Intro :

-|-5/7-7-7-7-7-7-7-7-7-7-7-7----5/7-7-7-7-7-7-7-7-7-7-7-7----|
-|-5/7-7-7-7-7-7-7-7-7-7-7-7----5/7-7-7-7-7-7-7-7-7-7-7-7----|
-|-----------------------------------------------------------|
-|-----------------------------------------------------------|
-|-----------------------------------------------------------|
-|-----------------------------------------------------------|

-|-5/7-7-7-7-7-7-7-7-7-7-7-7--------------------------12-----|
-|-5/7-7-7-7-7-7-7-7-7-7-7-7----/10------10--12b(14)---------|
-|-----------------------------------11----------------------|
-|-----------------------------------------------------------|
-|-----------------------------------------------------------|
-|-----------------------------------------------------------|

Verse/Chorus Form:

     B                                    E
You say you want a revolution   well you know

                            B
We all want to change the world

     B                                     E
You tell me that it's evolution  well you know

                           F#
We all want to change the world

C#m                        F#
But when you talk about destruction

C#m                           A   B  G#   F#
Don't you know that you can count me out (in?)

                          B       E
Don't you know it's gonna be   Alright

                          B       E
Don't you know it's gonna be   Alright

                          B       E     F#7
Don't you know it's gonna be   Alright


Guitar Details During Verses:
Guitar 1 plays a standard rock & roll shuffle:

       B
-|-----------------------------------------------------------------|
-|-----------------------------------------------------------------|
-|-----------------------------------------------------------------|
-|-----------------------------------------------------------------|
-|-----9----9---9h11--9--9-----9h11--9--9--9h11--9--9--9h11--9--9--|
-|-----7----7---7-----7--7-----7-----7--7--7-----7--7--7-----7--7--|
   You say you want   a  rev   o     lu    ti  on      well     you

       E
-|-----------------------------------------------------------------|
-|-----------------------------------------------------------------|
-|-----------------------------------------------------------------|
-|-----9----9---9h11--9--9-----9h11--9--9--9h11--9--9--9h11--9--9--|
-|-----7----7---7-----7--7-----7-----7--7--7-----7--7--7-----7--7--|
-|-----------------------------------------------------------------|
      know                                 we  all want to change the...

.. and so on, while Guitar 2 plays something along these lines:
       B
-|-------------------------------------------------------|
-|-------------4----4------4----4---4----4---4----4------|
-|-------------4----4------4----4---4----4---4----4------|
-|-------------4h6--4------4h6--4---4h6--4---4h6--4------|
-|-------------------------------------------------------|
-|-------------------------------------------------------|
   You say you want a rev o lu     tion      well you

       E
-|-------------------------------------------------------|
-|-----9-----9---9-----9---9-----9-------9-----9---------|
-|-----9-----9---9-----9---9-----9-------9-----9---------|
-|-----9h11--9---9h11--9---9h11--9-------9h11--9---------|
-|-------------------------------------------------------|
-|-------------------------------------------------------|
   know                  we all want to change the...


Guitar 2 plays this figure during the "chorus":

                 B             E
-|-------------------------------------------------------11--------------|
-|-------------------4----4---------------------------9--12--12-----12---|
-|-------------------4----4------------------9--9h11---------11h13--11---|
-|-------------------4h6--4---------9--9h11------------------------------|
-|-----------------------------------------------------------------------|
-|-----------------------------------------------------------------------|
  ... it's gonna be         alright

.. repeated a few times, and then the following turnaround:

    F#7
-|-----------------------------------------------------------|
-|-----------------------------------------------------------|
-|-----------------------------------------------------------|
-|-------------2----------4----------2-----------------------|
-|--------2h4--------2h4--------2h4-------------2------------|
-|--2--2----------2----------2----------2--2h4---------------|


Now, over the A B G# chords in the last verse, the lead guitar
plays a screaming figure based on this:

-|-----------14----|
-|--14b(16)--------|
-|-----------------|
-|-----------------|
-|-----------------|
-|-----------------|

And over the B & E chords the final time around, the lead guitar
is rapidly picking in rhythm with the words:

-|--9--------------|
-|--12b(14)--------|
-|-----------------|
-|-----------------|
-|-----------------|
-|-----------------|

.. up until the climactic end.

-|-------------10--9---|
-|--b(10)9--7--10--9---|
-|-------------11--10--|
-|-------------12--11--|
-|-------------12--11--|
-|-------------10--9---|


Intro is something like

 (keep sliding up to this A chord for awhile)
E------ ....  ------|
B--\9-- ....  --12^-|
G--\10= ....  ------|

my best approximation of how the rhythm goes is something like this... you'll
have to play around hitting those notes on the 4th fret and then letting the
whole chord ring out:
 A                       (ring)        D            A     (ring)
-----------     -------------------------------     -------------------|
-----------     ---------2-----------2-3-3-3---     ---------2-------2-|
----------- ... ---------2-----------2-2-2-2h4- ... ---------2-------2-| ...
-2-2-2h4-2-     -2-2-2h4-2-----2-2h4---0-0-0---     -2-2-2h4-2-2-2h4---|
-0-0-0---0-     -0-0-0---------0-0-------------     -0-0-0-----0-0-----|
-----------     -------------------------------     -------------------|

anyways, it eventually makes it to E with the same kind of pattern... most
of the funny business is stuff with the A where you do the 2(hammer)4 on
other strings [a few right in a row], and a 0h4 on the open string, usually
ending with a strum of the A chord...  so...
    A                                   D
You say you want a Revolution, well you know
                          A
We all want to change the world
                                          D
You tell me that it's evolution, well you know
                          E(7?)
We all want to change the world

Bm                           E
  but when you talk about destruction
Bm                            G     A  F#   E
  don't you know that you can count me out


(much more funny business with the notes on the 4th fret in this part:)
                            A     D         A...
  don't you know it's gonna be... alright...

and...

D---------0---------2-|
A-----0h2-----2-2h4---|  (x2)...
E-0-0-----------------|

You say you got a real solution, well you know
We'd all love to see the plan
You ask me for a contribution, well you know
We're all doing what we can...

But if you want money for minds that hate
All I can tell you is brother you have to wait
Don't you know it's gonna be...

You say you'll change the constitution, well you know
We all want to change your head
You tell me it's the institution, well you know
You better free your mind instead

But if you go carrying pictures of Chairman Mao
You ain't gonna make it with anyone anyhow...
Don't you know it's gonna be...


==========================================================================
	               Honey Pie


Intro:(Piano)

Em  A6    Am/D
She was a working girl
Cm                  G
North of England way
Em  A6    Am/D
Now she's in the big time
Cm          G
In  the  USA
A7
And if she could only hear me
D7
This is what I'd say:


G
Honey Pie         You are making me
Eb7               E7
Crazy             I'm in love but I'm
A7                D7
Lazy              So won't you please come
G                 Eb7       D7
Home                              Oh
G
Honey Pie         My position is
Eb7               E7
Tragic            Come and show me the
A7                D7
Magic             Of your Hollywood
G                 F#       F
Song

Em              C#m7
You became a legend of the sil-
G
ver screen
G7          C
And now the thought of meeting you
E7/B                      Am      D7
makes me weak in the knees              Oh

G
Honey Pie         You are driving me
Eb7               E7
frantic           Sail across the Atlan-
A7                D7
tic               To be where you belong
G                 Eb7       D7
            Honey Pie, come back to me

Solo:

(Guitar)

-|----------------------------|---------------7---8---7------|
-|-----15---------------------|-----------8---------------8--|
-|-16-------------------------|------------------------------|
-|-----------17---------------|------------------------------|
-|----------------------------|------------------------------|
-|----------------------------|------------------------------|

-|-------------8---9--11--12--|-14-------------13p12---------|
-|---------8------------------|------------------------------|
-|-8---8----------------------|------------------------------|
-|----------------------------|------------------------------|
-|----------------------------|------------------------------|
-|----------------------------|------------------------------|


(Piano)

|A7     |D7     |G      |Eb7 D7 |G      |       |

|Eb7    |E7     |A7     |D7     |G      |F#  F  |


Em                     C#m7
Will the wind that blew
               G
her boat across the sea
G7          C
            kindly send her
E7/B                      Am      D7
Sailing back to me                T. T. Tee!  Now

G
Honey Pie         You are making me
Eb7               E7
crazy             I'm in love but I'm la-
A7                D7
zy                So won't you please come home
G                 Eb7       D7
Come, come back to me Honey Pie, Ha ha ha

Outro:

|G      |Eb7    |E7     |A7     |D7     |G      |Eb7 D  |G      |

============================================================================


Savoy Truffle

Intro:

(2 bars of E7)

                               E7
Creme Tangerine and montelimar

  Riff 1: (Play this while you sing "Creme Tangerine,"
           it should "sing" the same tune.)

            E|---------------------------------|
            B|---------------------------------|
            G|-9b11---------7------------9-----|
            D|-----------------------9---------|
            A|---------------------------------|
            E|---------------------------------|

F#                                  A
   A ginger sling with a pineapple heart
G                                            B
   A coffee dessert yes, you know it's good news
            Em      C/E                     Em        C/E      C     G
But you'll have to have them all pulled out after the Savoy Truffle

(2 bars of E7)


(Play Riff 1 here)                      E7
Cool cherry cream and a nice apple tart

F#                                        A
   I feel your taste all the time we're apart
G                                         B
   Coconut fudge really blows down those blues
            Em      C/E                     Em        C/E      C     G
But you'll have to have them all pulled out after the Savoy Truffle


Em                        A
You might not feel it now
             Asus4      A                     G        B
But when the pain cuts through, you're gonna know and how
Em                        A
The sweat is gonna fill your head
         Asus4        A           G     B
When it becomes too much you'll shout aloud

Solo:

   E7
E|---------------------------------|----------------4---5---6---7----|
B|-5b7hold-----7r5-----5r3---------|-5-------------------------------|
G|---------------------------------|---------------------------------|
D|---------------------------------|---------------------------------|
A|---------------------------------|---------------------------------|
E|---------------------------------|---------------------------------|
   ^       ^       ^       ^         ^       ^       ^       ^


E|---------------------------------|--------------------------------|
B|---------------------------------|--------------------------------|
G|---------------------------------|--------------------------------|
D|---------------------------------|--------------------------------|
A|---------------------------------|--------------------------------|
E|---------------------------------|--------------------------------|
   ^       ^       ^       ^         ^       ^       ^       ^

   F#
E|---------------------------------|--------------------6---7---8---|
B|---------------------------------|----------------------7---8---9-|
G|-4b6r4-------4b6r4-------4b6r4---|-2h3p2--------------------------|
D|---------------------------------|-------4------------------------|
A|---------------------------------|--------------------------------|
E|---------------------------------|--------------------------------|
   ^       ^       ^       ^         ^       ^       ^       ^

   A
E|-/9------------------------------|--------------------------------|
B|-/10-----------------------------|--------------------------------|
G|---------------------------------|--------------------------------|
D|---------------------------------|--------------------------------|
A|---------------------------------|--------------------------------|
E|---------------------------------|--------------------------------|
   ^       ^       ^       ^         ^       ^       ^       ^
   G
E|-----------------7--8--9--8b10r8-|-----------------7---8---9---10-|
B|-------------/8------------------|-8---------------8---9---10--11-|
G|---------------------------------|--------------------------------|
D|---------------------------------|--------------------------------|
A|---------------------------------|--------------------------------|
E|---------------------------------|--------------------------------|
   ^       ^       ^       ^         ^       ^       ^       ^
                                     B
E|---------------------------------|------------12------------------|
B|---------------------------------|------------15b17---------------|
G|---------------------------------|--------------------------------|
D|---------------------------------|--------------------------------|
A|---------------------------------|--------------------------------|
E|---------------------------------|--------------------------------|
   ^       ^       ^       ^         ^       ^       ^       ^

            Em      C/E                     Em        C/E      C     G
But you'll have to have them all pulled out after the Savoy Truffle


Em                                 A
You know that what you eat you are
            Asus4  A        G   B
But what is sweet now turns so sour
Em                         A
We all know Obla-Di-Bla-Da
       Asus4  A            G   B
But can you show me where you are?

E7
Creme Tangerine and montelimar
F#                                  A
   A ginger sling with a pineapple heart
G                                            B
   A coffee dessert yes, you know it's good news
            Em      C/E                     Em        C/E      C     G
But you'll have to have them all pulled out after the Savoy Truffle
            Em      C/E                     Em        C/E      C     G
Yes you'll have to have them all pulled out after the Savoy Truffle

==========================================================================


CRY BABY CRY

  G      Am   F                G
Cry baby cry make your mother sigh
      Em7                A7     F
she's old enough to know better

    Em      Em+7                  Em7
The king of Marigold was in the kitchen
        Em6                 C7  G
cooking breakfast for the queen
    Em               Em+7             Em7
The queen was in the parlour playing piano
            Em6          C7
For the children of the king

CHORUS:
 G       Am    F               G
Cry baby cry make your mother sigh
      Em7                   A7       F       G
she's old enough to know better so cry baby cry

The king was in the garden picking flowers
For a friend who came to play
The queen was in the playroom painting pictures
For the childrens holiday ...CHORUS

The duchess of Kircaldy always smiling
And arriving late for tea
The duke was having problems with a message
At the local bird and bee ...CHORUS

At twelve o'clock a meeting round the table
For a seance in the dark
With voices out of nowhere put on specially
By the children for a lark...CHORUS TWICE (end on Em)

 Fm
Can you take me back where are people, can you take me back
Can you take me back where are people, brother can you take me back
Can you take me back?
Oh can you take me where are people, can you take me back?


Em+7:  0 2 1 0 0 0   Em7: 0 2 2 0 3 0   Em6: 0 2 2 0 2 0

==========================================================================


Revolution 9

No Tab

==========================================================================

Goodnight

{Slow lullaby}
1. [G]Now it's [Bmi]time to [C]say goodnight,
[Bmi]Good [C]night, sleep [D7]tight.
[G]Now the [Bmi]sun turns [C] out his light,
[Bmi]Good [C]night, sleep [D7] tight

{Chorus:}
         [Bmi]Dream sweet [Ami]dreams for [Bmi]me [Ami],
         [G]Dream sweet [Ami]dreams for [G]you [Ami].

2. Close your eyes and I'll close mine,  Goodnight, sleep tight
Now the moon begins to shine,   Goodnight, sleep tight

{Chorus.}

{Middle:}
         [G]Hm, m [Ami]m, [A]Hm, m [Dmi]m, [G]Hm, m, [C]m-m-m [D7]m.

3. Close your eyes and I'll close mine,   Goodnight, sleep tight
Now the sun turns out his light,   Goodnight, sleep tight

{Chorus.}
Related for White tab