Song name
# A B C D E F G H I J K L M N O P Q R S T U V W X Y Z

Beatles - When I Get Home tab

    --------------------------------------------------------

    THE BEATLES - WHEN I GET HOME (Lennon & McCartney). From
                  A HARD DAY'S NIGHT album. Released on 20th 
                  March 1964.
   
    --------------------------------------------------------

    Tabbed by:PJVillanueva






    Whoa ho, whoa ho,
    I got a whole lot of things to tell her,
    When I get home.

    Come on, out my way,   
   'cause I'm a gonna see my baby today,
    I've got a whole lot of things I've gotta say
    To her.

    Whoa ho, whoa ho,
    I got a whole lot of things to tell her,
    When I get home.

    Come on if you please,
    I've got no time for trivialities,
    I've got a girl who's waiting home for me 
    Tonight.

    Whoa ho, whoa ho,
    I got a whole lot of things to tell her,
    When I get home.

    When I'm getting home tonight, I'm gonna
    Hold her tight.
    I'm gonna love her till the cows come home,
    I bet I'll love her more,
    Till I walk out that door
    Again.

    Come on, let me through,
    I've got so many things, I've got to do,
    I've got no business being here with you
    This way.

    Whoa ho, whoa ho,
    I've got a whole lot of things to tell her
    When I get home yeah.



                                                    x   x   x   X
                                                                A
  e|------- ------- ------- -------|------- ------- ------- ----5--|
  B|-------------------------------|----------------------------5--| 
  G|-------------------------------|----------------------------6--|
  D|-------------------------------|----------------------------7--|
  A|-------------------------------|----------------------------7--|
  E|-------------------------------|----------------------------5--|
                                                    Whooooooa   hoo




  e|------- 5------ 5---5-- ----5--|5------ 5------ 5---5-- 5---5--|
  B|--------5-------5---5-------5--|5-------5-------5---5---5---5--|
  G|--------6-------6---6-------6--|6-------6-------6---6---6---6--|
  D|--------7-------7---7-------7--|7-------7-------7---7---7---7--|
  A|--------7-------7---7-------7--|7-------7-------7---7---7---7--|
  E|--------5-------5---5-------5--|5-------5-------5---5---5---5--|
    oooooooooooooooooooooooooooooooooooooooooooo    Whooooooa   ho




  e|------- 5------ 5---5-- 5---5--|5------ 5------ 5---5-- 5------|
  B|--------5-------5---5---5---5--|5-------5-------5---5---5------|
  G|--------6-------6---6---6---6--|6-------6-------6---6---6------|
  D|--------7-------7---7---7---7--|7-------7-------7---7---7------|
  A|--------7-------7---7---7---7--|7-------7-------7---7---7------|
  E|--------5-------5---5---5---5--|5-------5-------5---5---5------|
    oooooooooooooooooooooooooooooooooooooooooooo        I   got a


    00:08
    D9                              G7
  e|0------ 0---0-- 0---0-- 0------|3------ 3---3-- 3---3-- 3------|
  B|3-------3---3---3---3---3------|6-------6---6---6---6---6------|
  G|5-------5---5---5---5---5------|4-------4---4---4---4---4------|
  D|4-------4---4---4---4---4------|x-------x---x---x---x---x------|
  A|5-------5---5---5---5---5------|5-------5---5---5---5---5------|
  E|-------------------------------|3-------3---3---3---3---3------|
    whole   lot of  things  tell                    when    get home
                        to      her                     I


    Am                              G    
  e|0------ 0------ 0---0-- 0---3--|3-3-3-3 3---3-- --3-3-3 3---3--|
  B|1-------1-------1---1---1---3--|3-3-3-3-3---3-----3-3-3-3---3--|
  G|2-------2-------2---2---2---4--|4-4-4-4-4---4-----4-4-4-4---4--|
  D|2-------2-------2---2---2---5--|5-5-5-5-5---5-----5-5-5-5---5--|
  A|0-------0-------0---0---0---5--|5-5-5-5-5---5-----5-5-5-5---5--|
  E|----------------------------3--|3-3-3-3-3---3-----3-3-3-3---3--|
                                                                Come
                                                                  on

    00:16
    C       C7  ....                F7
  e|------- 0------ ----0-- -------|------- 1------ ----1-- -------|
  B|--------1-----------1----------|--------4-----------4----------|
  G|0---0---3-------0---3---0---0--|--------2-----------2-------0--|
  D|2---2---2-------2---2---2---0--|--------x-----------x-------0--|
  A|3---3---3-------3---3---3---3--|3---3---3-------3---3---3------|
  E|-------------------------------|1---1---1-------1---1---1------|
                            out my  way                'cause   a
                                                            I'm



  e|------- 0------ ----0-- -------|------- 1------ ----1-- -------|
  B|--------1-----------1----------|--------4-----------4----------|
  G|0---0---3-------0---3---0---0--|--------2-----------2-------0--|
  D|2---2---2-------2---2---2---0--|--------x-----------x-------2--|
  A|3---3---3-------3---3---3---3--|3---3---3-------3---3---3---2--|
  E|-------------------------------|1---1---1-------1---1---1------|
    gonna   see my  baby        today                   I've    a 
                                                            got



  e|------- 0------ ----0-- -------|------- 1------ 1---1-- -------|
  B|--------1-----------1----------|--------4-------4---4----------|
  G|0---0---3-------0---3---0---0--|--------2-------2---2----------|
  D|2---2---2-------2---2---2---0--|--------x-------x---x----------|
  A|3---3---3-------3---3---3---3--|3---3---3-------3---3---3------|
  E|-------------------------------|1---1---1-------1---1---1------|
    whole   lot of  things  gotta   say                     to
                        I've


    G7                                                          A7
  e|------- ----3-- ------- 3------|3------ ------- ------- ----5--|
  B|------------6-----------6------|6----3----------------------8--|
  G|4---4---4---4-----------4------|4----4--4---4---4-------4---6--|
  D|x---x---x---x-----------x------|x----x--x---x---x-------x---x--|
  A|5---5---5---5-----------5------|5----5--5---5---5-------5---7--|
  E|3---3---3---3-----------3------|3----3--3---3---3-------3---5--|
    her                                             Whooooooa   hoo


    00:31

  e|------- 5------ 5---5-- ----5--|5------ 5------ 5---5-- 5---5--|  
  B|--------8-------8---8-------8--|8-------8-------8---8---8---8--|
  G|--------6-------6---6-------6--|6-------6-------6---6---6---6--|
  D|--------x-------x---x-------x--|x-------x-------x---x---x---x--|
  A|--------7-------7---7-------7--|7-------7-------7---7---7---7--|
  E|--------5-------5---5-------5--|5-------5-------5---5---5---5--|
    oooooooooooooooooooooooooooooooooooooooooooo    Whooooooa   hoo




  e|------- 5------ ----5-- -------|------- 5------ ----5-- 5------|
  B|--------8-----------8----------|--------8-----------8---8------|
  G|--------6-------6---6-------6--|--------6-------6---6---6------|
  D|--------x-------x---x-------x--|--------x-------x---x---x------|
  A|--------7-------7---7-------7--|--------7-------7---7---7------|
  E|--------5-------5---5-------5--|--------5-------5---5---5------|
    oooooooooooooooooooooooooooooooooooooooooooo        I   got a


    00:39
    D9                              G7
  e|------- 0---0-- ------- 0------|3------ 3---3-- ----3-- -------|  
  B|--------3---3-----------3------|6-------6---6-------6-------0--|
  G|5-------5---5---5---5---5---5--|4-------4---4---4---4---4---0--|
  D|4-------4---4---4---4---4---4--|x-------x---x---x---x---x---0--|
  A|5-------5---5---5---5---5---5--|5-------5---5---5---5---5------|
  E|-------------------------------|3-------3---3---3---3---3------|
    whole   lot of  things  tell                    when    get home
                        to      her                     I


    Am                              G
  e|------- 0------ 0---0-- 0------|3-----3 3---3-- --3-3-3 3---3--|
  B|--------1-------1---1---1---0--|3-----3-3---3-----3-3-3-3---3--|
  G|2-------2-------2---2---2---0--|4-----4-4---4-----4-4-4-4---4--|
  D|2-------2-------2---2---2---0--|5-----5-5---5-----5-5-5-5---5--|
  A|0-------0-------0---0---0------|5-----5-5---5-----5-5-5-5---5--|
  E|-------------------------------|3-----3-3---3-----3-3-3-3---3--|
                                                                Come
                                                                  on

    00:46
                                                                     
  e|------- 0------ 0---0-- -------|------- 1------ ----1-- -------|
  B|--------1-------1---1----------|--------4-----------4-------0--|
  G|0-------3-------3---3-------0--|--------2-----------2-------0--|
  D|2-------2-------2---2-------0--|--------x-----------x-------0--|
  A|3-------3-------3---3----------|3---3---3-------3---3---3------|
  E|-------------------------------|1---1---1-------1---1---1------|
                            If  you please,             I've  
                                                            got



  e|------- 0------ ----0-- -------|------- 1------ ----1-- -------|
  B|--------1-----------1----------|--------4-----------4----------| 
  G|0---0---3-------0---3---0---0--|--------2-----------2-------0--|
  D|2---2---2-------2---2---2---0--|--------x-----------x-------0--|
  A|3---3---3-------3---3---3---3--|3---3---3-------3---3---3------|
  E|-------------------------------|1---1---1-------1---1---1------|
    no      time    trivialities,                       I've    a 
                for                                         got



  e|------- 0---0-- ----0-- -------|------- 1------ ----1-- -------| 
  B|--------1---1-------1----------|--------4-----------4----------|
  G|0-------3---3---0---3-------0--|--------2-------2---2---2------|
  D|2-------2---2---2---2-------0--|--------x-------x---x---x------|
  A|3-------3---3---3---3----------|3---3---3-------3---3---3------|
  E|-------------------------------|1---1---1-------1---1---1------|
    girl    who's   waiting home    me                      tonight
                                for 



  e|------- ----3-- ----3-- 3------|------- ----3-- ----3-- 3---5--| 
  B|------------6-------6---6------|------------6-------6---6---8--|
  G|4---4---4---4-------4---4------|4---4-------4-------4---4---6--|
  D|x---x---x---x-------x---x------|x---x-------x-------x---x---x--|
  A|5---5---5---5-------5---5---5--|5---5-------5-------5---5---7--|
  E|3---3---3---3-------3---3---3--|3---3-------3-------3---3---5--|
                                                    Whooooooa   hoo


    01:01

  e|------- 5------ 5---5-- 5---5--|5------ 5------ 5---5-- ----5--|  
  B|--------8-------8---8---8---8--|8-------8-------8---8-------8--|
  G|--------6-------6---6---6---6--|6-------6-------6---6---6---6--|
  D|--------x-------x---x---x---x--|x-------x-------x---x---x---x--|
  A|--------7-------7---7---7---7--|7-------7-------7---7---7---7--|
  E|--------5-------5---5---5---5--|5-------5-------5---5---5---5--|
    oooooooooooooooooooooooooooooooooooooooooooo    Whooooooa   hoo




  e|------- 5------ ----5-- ----5--|------- 5------ ----5-- 5------|
  B|--------8-----------8-------8--|--------8-----------8---8------|
  G|--------6-------6---6---6---6--|6-------6-------6---6---6------|
  D|--------x-------x---x---x---x--|x-------x-------x---x---x------|
  A|--------7-------7---7---7---7--|7-------7-------7---7---7------|
  E|--------5-------5---5---5---5--|5-------5-------5---5---5------|
    oooooooooooooooooooooooooooooooooooooooooooo        I   got a


    01:08

  e|------- 0---0-- ----0-- 0------|------- 3---3-- ----3-- 3------|   
  B|--------3---3-------3---3------|--------6---6-------6---6---0--|
  G|--------5---5---5---5---5------|4-------4---4---4---4---4---0--|
  D|4-------4---4---4---4---4------|x-------x---x---x---x---x---0--|
  A|5-------5---5---5---5---5------|5-------5---5---5---5---5------|
  E|-------------------------------|3-------3---3---3---3---3------|
    whole   lot of  things  tell                    when    get home
                        to      her                     I



  e|0------ 0------ 0---0-- 0---0--|0------ 0------ 0---0-- 0------|
  B|1-------1-------1---1---1---1--|1-------1-------1---1---1---0--|
  G|2-------2-------2---2---2---2--|2-------2-------2---2---2---0--|
  D|2-------2-------2---2---2---2--|2-------2-------2---2---2---0--|
  A|0-------0-------0---0---0---0--|0-------0-------0---0---0------|
  E|-------------------------------|-------------------------------|
                                                    when    get mmm
                                                        I

    01:16
    C                               Am
  e|0------ 0------ 0---0-- 0---0--|0------ 0---0-- 0---0-- 0---0--|
  B|1-------1-------1---1---1---1--|1-------1---1---1---1---1---1--|
  G|0-------0-------0---0---0---0--|2-------2---2---2---2---2---2--|
  D|2-------2-------2---2---2---2--|2-------2---2---2---2---2---2--|
  A|3-------3-------3---3---3---3--|0-------0---0---0---0---0---0--|
  E|-------------------------------|-------------------------------|
    home    tonight     I'm gonna   hold        tight   I'm gonna
                                        her


    C                               Am
  e|0------ 0------ 0---0-- 0---0--|0------ 0---0-- 0---0-- 0------|
  B|1-------1-------1---1---1---1--|1-------1---1---1---1---1------|
  G|0-------0-------0---0---0---0--|2-------2---2---2---2---2------|
  D|2-------2-------2---2---2---2--|2-------2---2---2---2---2------|
  A|3-------3-------3---3---3---3--|0-------0---0---0---0---0------|
  E|-------------------------------|-------------------------------|
    love    till    cows    come                        I   bet 
        her     the             home


    01:24
    F                               G
  e|1------ 1------ 1---1-- 1---1--|3------ 3---3-- ----3-- 3------|
  B|1-------1-------1---1---1---1--|3-------3---3-------3---3------|
  G|2-------2-------2---2---2---2--|4-------4---4-------4---4------|
  D|3-------3-------3---3---3---3--|5-------5---3-------5---5------|
  A|3-------3-------3---3---3------|5-------5---5-------5---5------|
  E|1-------1-------1---1---1------|3-------3---3-------3---3------|
    I'll            love        more                    till I
                        her


    F                               G
  e|1------ 1---1-- ----1-- 1------|3------ 3---3-- 3---3-- 3---3--|
  B|1-------1---1-------1---1------|3-------3---3---3---3---3---3--|
  G|2-------2---2-------2---2------|4-------4---4---4---4---4---4--|
  D|3-------3---3-------3---3------|5-------5---5---5---5---5---5--|
  A|3-------3---3-------3---3------|5-------5---5---5---5---5------|
  E|1-------1---1-------1---1------|3-------3---3---3---3---3------|
    walk            out that    door                        again



    
    Am                              G
  e|0------ 0------ 0---0-- 0------|3-----3 3---3-- --3-3-3 3------|
  B|1-------1-------1---1---1---0--|3-----3-3---3-----3-3-3-3------|
  G|2-------2-------2---2---2---0--|4-----4-4---4-----4-4-4-4------|
  D|2-------2-------2---2---2---0--|5-----5-5---5-----5-5-5-5------|
  A|0-------0-------0---0---0------|5-----5-5---5-----5-5-5-5------|
  E|-------------------------------|3-----3-3---3-----3-3-3-3------|
                                                                Come
                                                                  on

    01:35
                                                                      
  e|------- 0------ 0---0-- 0------|------- 1------ 1---1-- 1------|
  B|--------1-------1---1---1------|--------4-------4---4---4------|
  G|0---0---3-------3---3---3---0--|--------2-------2---2---2---0--|
  D|2---2---2-------2---2---2---0--|--------x-------x---x---x---0--|
  A|3---3---3-------3---3---3------|3-------3-------3---3---3------|
  E|-------------------------------|1-------1-------1---1---1------|
                            let me  through             I've    so
                                                            got



  e|------- 0------ ----0-- ----0--|------- 1------ 1---1-- 1------|  
  B|--------1-----------1-------1--|--------4-------4---4---4------|
  G|0---0---3---0---0---3---0---0--|--------2-------2---2---2------|  
  D|2---2---2---2---2---2---2---0--|--------x-------x---x---x------|
  A|3---3---3---3---3---3---3---3--|3---3---3-------3---3---3------|
  E|-------------------------------|1---1---1-------1---1---1------|
            many    things  got to  do                  I've  
                        I've                                got



  e|------- 0---0-- ----0-- -------|------- 1------ 1------ 1------|  
  B|--------1---1-------1----------|--------4-------4-------4------|
  G|0---0---3---3---0---3---0---0--|--------2-------2-------2------|
  D|2---2---2---2---2---2---2---0--|--------x-------x-------x------|
  A|3---3---3---3---3---3---3---3--|3---3---3-------3-------3------|
  E|-------------------------------|1---1---1-------1-------1------|
    no      business        here    you                     this
                    being       with



  e|------- 3---3-- ----3-- 3---3--|------- 3---3-- ----3-- ----5--| 
  B|--------6---6-------6---6---6--|--------6---6-------6-------8--|
  G|4---4---4---4-------4---4---4--|4---4---4---4---4---4---4---6--|
  D|x---x---x---x-------x---x---x--|x---x---x---x---x---x---x---x--|
  A|5---5---5---5-------5---5---5--|5---5---5---5---5---5---5---7--|
  E|3---3---3---3-------3---3---3--|3---3---3---3---3---3---3---5--|
    way                                             Whooooooa   hoo


    01:51

  e|------- 5------ 5---5-- 5---5--|5------ 5------ 5---5-- 5---5--|    
  B|--------8-------8---8---8---8--|8-------8-------8---8---8---8--|
  G|--------6-------6---6---6---6--|6-------6-------6---6---6---6--|
  D|--------x-------x---x---x---x--|x-------x-------x---x---x---x--|
  A|--------7-------7---7---7---7--|7-------7-------7---7---7---7--|
  E|--------5-------5---5---5---5--|5-------5-------5---5---5---5--|
    oooooooooooooooooooooooooooooooooooooooooooo    Whooooooa   hoo




  e|------- 5------ 5---5-- 5---5--|5------ 5------ 5---5-- 5------|
  B|--------8-------8---8---8---8--|8-------8-------8---8---8------|
  G|--------6-------6---6---6---6--|6-------6-------6---6---6------|
  D|--------x-------x---x---x---x--|x-------x-------x---x---x------|
  A|--------7-------7---7---7---7--|7-------7-------7---7---7------|
  E|--------5-------5---5---5---5--|5-------5-------5---5---5------|
    oooooooooooooooooooooooooooooooooooooooooooo        I   got a


   

  e|0------ 0---0-- 0---0-- 0---3--|3------ 3---3-- 3---3-- 3---5--|  
  B|3-------3---3---3---3---3---6--|6-------6---6---6---6---6---8--|
  G|5-------5---5---5---5---5---4--|4-------4---4---4---4---4---6--|
  D|4-------4---4---4---4---4---x--|x-------x---x---x---x---x---7--|
  A|5-------5---5---5---5---5---5--|5-------5---5---5---5---5---7--|
  E|----------------------------3--|3-------3---3---3---3---3---5--|
    whole   lot of  things  tell                    when    get home
                        to      her                     I


    02:02

  e|------- 5---5-- 5---5-- 5---5--|------- 5---5-- 5---5-- 5------|
  B|--------8---8---8---8---8---8--|--------8---8---8---8---8---0--|
  G|--------6---6---6---6---6---6--|--------6---6---6---6---6---0--|
  D|--------x---x---x---x---x---x--|--------x---x---x---x---x---0--|
  A|--------7---7---7---7---7---7--|--------7---7---7---7---7------|
  E|--------5---5---5---5---5---5--|--------5---5---5---5---5------|
                                yeah                    I   got a




  e|0------ 0---0-- 0---0-- 0---3--|3------ 3---3-- 3---3-- 3---0--|  
  B|3-------3---3---3---3---3---6--|6-------6---6---6---6---6---1--|
  G|5-------5---5---5---5---5---4--|4-------4---4---4---4---4---0--|
  D|4-------4---4---4---4---4---x--|x-------x---x---x---x---x---2--|
  A|5-------5---5---5---5---5---5--|5-------5---5---5---5---5---3--|
  E|----------------------------3--|3-------3---3---3---3---3------|
    whole   lot of  things  tell                    when    get home
                        to      her                     I

   (.

  e|0------ ------- ------- -------|------- ------- ------- -------|
  B|1------------------------------|-------------------------------|
  G|0------------------------------|-------------------------------|
  D|2------------------------------|-------------------------------|
  A|3------------------------------|-------------------------------|
  E|-------------------------------|-------------------------------|









        B  Bend
        R  Release
        /  Slide up
        \  Slide down
        H  Hammer-on
        P  Pull-off
        ~  Vibrato
        +  Harmonic
        x  Mute note
        .  Play note like a dot in standard notation
        ^  Ties two notes together
        (. Pause





Tap to rate this tab
# A B C D E F G H I J K L M N O P Q R S T U V W X Y Z