Song name
# A B C D E F G H I J K L M N O P Q R S T U V W X Y Z

Beatles - I Had A Dream tab

This is my thought on how you play I had a dream by the Beatles. I hope it's good. Enjoy!

intro:
verse 1,2
[-----1-------------------------------------------3----------------------5-]
[-----------0----3---------------------------------------------------------]
[-------------------111111-------------------------------3-3-3-3-----------]
[--------------------------------6-----5-----------------------------------]
[--------2-----------------------------------8---------------------3-------]
[-----------------------------6-----------------------3--------------------]

chorus:                 (let ring)
[--111---4-3-2---111---4-------------------------------------------------]
[------------------------------------------------------------------------]
[------------------------------------------------------------------------]
[------------------------------------------------------------------------]
[------------------------------------------------------------------------]
[------------------------------------------------------------------------]
Tap to rate this tab
# A B C D E F G H I J K L M N O P Q R S T U V W X Y Z