Song name
# A B C D E F G H I J K L M N O P Q R S T U V W X Y Z

Beats And Styles - Take It Back tab

-------------------------------------------------------------------------------
			     Take It Back - Beats and Styles
-------------------------------------------------------------------------------

Tabbed by: Rubenishere
Email: ruben_melin@hotmail.com

Tuning:Standard [EADGBe]

My first tab so don't kill me :D

Intro chords: (Can be played throughout the entire song but are mainly used in the intro 
and first verse)

e|---------------------------------------------------------------------------|
B|---6---6---6---6---6---6---6-----9---9---9---9---9---9---9---9---9---------|
G|---7---7---7---7---7---7---7-----9---9---9---9---9---9---9---9---9---------|
D|---7---7---7---7---7---7---7-----9---9---9---9---9---9---9---9---9---------|
A|---5---5---5---5---5---5---5-----10--10--10--10--10--10--10--10--10--------|
E|---------------------------------------------------------------------------|

e|---------------------------------------------------------------------------|
B|---5---5---5---5---5---5---5-----8---8---8---8---8---8---8---8---8---------|
G|---5---5---5---5---5---5---5-----7---7---7---7---7---7---7---7---7---------|
D|---5---5---5---5---5---5---5-----9---9---9---9---9---9---9---9---9---------|
A|---3---3---3---3---3---3---3-----10--10--10--10--10--10--10--10--10--------|
E|---------------------------------------------------------------------------|

Melody sling:  (played in the intro and troughout the chorus)

e|---12----------12--------------------12------------------------------------|
B|-------15----------15-------13--15-------15--------------------------------|
G|-----------14----------14--------------------------------------------------|
D|---------------------------------------------------------------------------|
A|---------------------------------------------------------------------------|
E|---------------------------------------------------------------------------|

Verse guitar riff:   (played in the second verse and the breakdown/bridge)

e|-------------------------------------------------------------------------------------|
B|-------------------------------------------------------------------------------------|
G|-------9-------9-------9-------9-------9---------------------------------------------|
D|---7-------7-------7-------7-------7--------------12------12-------------------------|
A|----------------------------------------------10------10-----------12------12------12|
E|---------------------------------------------------------------10------10------10----|

At the third verse and the pre-chorus thereafter, the intro chords are just bashed out
untilthe chorus.

That would pretty much be all, feedback and ratings are appreciated :D
Tap to rate this tab
 
# A B C D E F G H I J K L M N O P Q R S T U V W X Y Z