Song name
# A B C D E F G H I J K L M N O P Q R S T U V W X Y Z

Beatsteaks - Hello Joe tab

Help us improve GuitareTab! Take a short survey!
Hello Joe
The Beatsteaks
tabbed by JanB
Guitar one step lower (Eb Ab Db Gb Bb Eb)
Chords: Ebm Gbm Cbm B5
(E A D G B E )
Ebm: ( 7 9 9 8 7 )
Gbm: ( 10 12 12 11 10)
Cbm: ( 3 5 5 4 3 )
Eb: (2 2 4 4 )

Intro Git.1
e-------------------------------------10--10-------------------------|
b---------8--8--8--8--8--8--8--8-8--8-11--11--11--11--4--4--4-4------|
g--/-(9)--9--9--9--9--9--9--9--9-9--9-12--12--12--12--5--5--5-5-4-4--|
D--/-(9)--9--9--9--9--9--9--9--9-9--9-12--12--12--12--5--5--5-5-4-4--|
A--/-(7)--7--7--7--7--7--7--7--7-7--7-10--10--10--10--3--3--3-3-2-2--|
E---------------------------------------------------------------2----|

Intro Git.2
e--------------------------------------------------------------------|
b--------------------------------------------------------------------|
g-----------------------------------------------------feedback-------|
D--------------------------------------------------------------------|
A--------------------------------------------------------------------|
E---------------------------------------------------------------/-7--|

Intro Git.1 & 2 (Rhy.Fig.1)
e------------------------------10--10-------------------------|
b--8--8--8--8--8--8--8--8-8--8-11--11--11--11--4--4--4-4------|
g--9--9--9--9--9--9--9--9-9--9-12--12--12--12--5--5--5-5-4-4--|
D--9--9--9--9--9--9--9--9-9--9-12--12--12--12--5--5--5-5-4-4--|
A--7--7--7--7--7--7--7--7-7--7-10--10--10--10--3--3--3-3-2-2--|
E-------------------------------------------------------------|
_____________

Verse 2X
Guitar1 and guitar2 are playing the same riff.
(Rhy.Fig.1)
e------------------------------10--10-------------------------|
b--8--8--8--8--8--8--8--8-8--8-11--11--11--11--4--4--4-4------|
g--9--9--9--9--9--9--9--9-9--9-12--12--12--12--5--5--5-5-4-4--|
D--9--9--9--9--9--9--9--9-9--9-12--12--12--12--5--5--5-5-4-4--|
A--7--7--7--7--7--7--7--7-7--7-10--10--10--10--3--3--3-3-2-2--|
E-------------------------------------------------------------|

(Rhy.Fig.2)
e--------------10--10------------------------10--10-----------|
b--8--8--8--8--11--11--4-4-------8--8--8--8--11--11--4-4------|
g--9--9--9--9--12--12--5-5-4-4-/-9--9--9--9--12--12--5-5-4-4--|
D--9--9--9--9--12--12--5-5-4-4-/-9--9--9--9--12--12--5-5-4-4--|
A--7--7--7--7--10--10--3-3-2-2-/-7--7--7--7--10--10--3-3-2-2--|
E-------------------------------------------------------------|

And so on...
Related for Hello Joe tab