Song name
# A B C D E F G H I J K L M N O P Q R S T U V W X Y Z

Beatsteaks - To Be Strong tab

Artist: Beatsteaks
Song: To Be Strong
Album: Living Targets (bei Kanonen auf spatzen etwas abweichend)
Tabbed by: Necriononguitar
E-mail: Tim.Rathgen@web.de

Intro:
B,C,G,D bzw. Em,C,G,D
E------3--------3--------3-----------3-------|
B------3--------3--------3-----------3-------|
G------0--------0--------0-----------2-------|
D------2--------2--------2-----0--0----------|
A---2------2-3-------------------------------|
E---X---------------33-----------------------|

Hinweis:
Die Akkorde heißen entweder B bzw. Em, da der Gitarrist den B Ton Des E-moll Akkords 
und es daher nach B-dur klingt. Man erkennt den Unterschied daran, dass der Bassist Em 
Einfach ausprobieren!

Vers 0:07
B,C,G,D
Der Selbe kram, hier fängt Arnim (Sänger) erst an zu singen.

Chorus: 0:39
B,C,G,D
Die selben Akkorde, dasselbe Schema. Man muss sich übrigens das Lied anhören um den 
zu verstehen, falls sich jmd wundert.

Interlude: 0:43
D,D
E---------------|
B---------------|
G---7-----------|
D---7--x32------|
A---5-----------|
E---------------|

Die 2. Gitarre fängt an zu spielen und spielt das D zwei mal.
E-------------------------------------|
B-------------------------------------|
G----7-----------------7--------------|
D----7-----------------7--------------|
A----5-----------------5--------------|
E-------------------------------------|

Vers II: 0:49
E,C,G,D
Beide Gitarren spielen das hier:
E-------------------------------------------|
B-------------------------------------------|
G-----------5--5-----------7--7-7-7---------|
D---2--2----5--5----5--5---7--7-7-7---------|
A---2--2----3--3----5--5---5--5-5-5---------|
E---0--0------------3--3--------------------|

Pre-Chorus: 1:02
B,C,D,D x2  B,C,G,A  A A A A
2.Gitarre:
(Die 2. Gitarre ist in diesem Pre-Chorus nur im Hintergrund)
E----------------------------------------|
B----------------------------------------|
G---4--44-5--55-7--77-777----------------|
D---4--44-5--55-7--77-777----x2----------|
A---2--22-3--33-5--55-555----------------|
E----------------------------------------|

E----------------------------------------------------------------------|
B----------------------------------------------------------------------|
G---4--44-5--55--------------------------------------------------------|
D---4--44-5--55--5--5-7--777-----7-------------------------------------|
A---2--22-3--33--5--5-7--777-----7--x16----(nur den letzten Akkord x16-|
E----------------3--3-5--555-----5-------------------------------------|

Das A am Ende einfach durchgehend anschlagen.

1.Gitarre
E-------------------------------------------------------------------|
B-------------------------------------------------------------------|
G-------------------------------------------------------------------|
D-------------------------------------------------------7-----------|
A---2---3----5-------2---3---2--5------2---3------------7--x16------|
E----------------------------------------------3---5----5-----------|
(Pro Akkord einmal anschlagen)

Chorus: 1:15
E,C,G,D
Wird Genauso gespielt, wie Vers II

Interlude II: 1:27
E,C,G,D
Die 2.Gitarre spielt Vers II

Die 1. Gitarre spielt das "minisolo"
E----7--7-10-7---7-10-7-----x3-------|
B------------------------------------|
G------------------------------------|
D------------------------------------|
A------------------------------------|
E------------------------------------|
Dann:
E------------------------------------|
B----5--5--5--5---7/8\7--5-----------|
G------------------------------------|
D------------------------------------|
A------------------------------------|
E------------------------------------|
Das Solo kann man eigentlich irgentwie anschlagen, muss nur passen.
Also nicht genau an das Vorgegebene halten.

Vers (Break): 1:40
Wird wie der erste Vers bzw. das Intro gespielt.
Em,C,G,D

Die Akkorde werden x3 gespielt.
Danach spielt man Em,C,D und schlägt D nur einmal an.

Pre-Chorus: 1:53
B,C,D,D
Beide Gitarren spielen das hier (Alles wird Palm-muted gespielt):
E-------------------------------|
B-------------------------------|
G---4------5------7-------------|
D---4--x4--5--x4--7--x8---------|
A---2------3------5-------------|
E-------------------------------|

E---------------------------------------|
B---------------------------------------|
G---4-------5-------4-------7-----------|
D---4--x4---5--x4---4--x3---7--x5-------|
A---2-------3-------2-------5-----------|
E---------------------------------------|

E------------------------------------------------|
B------------------------------------------------|
G---4-------5------------------------------------|
D---4--x4---5--x4---5--------7---------7---------|
A---2-------3-------5--x3----7--x5-----7--x16----|
E-------------------3--------5---------5---------|

Chorus: 2:06
E,C,G,D
Das selbe Schema wie bevor, aber jetzt schlägt man ein bisschen schneller an

Ab 2:19 spielt eine der Gitarren das "minisolo", aber nur den ersten part:
E------7--7-10-7-....---------|
B-----------------------------|
G-----------------------------|
D-----------------------------|
A-----------------------------|
E-----------------------------|


Bitte erst das Lied genau anhören oder einen Kommentar schreiben bevor man eine 
Bewertung abgibt.
Danke, dass ich euch diese Mühe machen durfte!

X:  Muted Note
/:  Slide up (einen oder mehrere Bünde hochrutschen, z.B. 7/8)
\:  Slide down (einen oder mehrere Bünde runter rutschen)
Palm-Muting: Die anschlagende Hand liegt auf dem Steg des Saitenhalters
             (ein dumpferer Ton entsteht)

Hier die (ungefähren) lyrics:

Waiting here in line
Trying to get the bullshit off my mind
Time is on my side
I'm not here to hide
I need to breath and I'm not scared
But I don't know how it is
But I don't know how it is
to be strong
It feels like this far too long
Trying to get the pressure out of this song
So here I am on my own
With my back on the wall
With my back on the wall
To be strong.
Waiting here in line
Trying to get the bullshit off my mind
Time is on my side
I'm not here to hide
I need to breath and I'm not scared
But I don't know how it is
But I don't know how it is
Tap to rate this tab
# A B C D E F G H I J K L M N O P Q R S T U V W X Y Z