Song name
# A B C D E F G H I J K L M N O P Q R S T U V W X Y Z

Beatsteaks - Kings Of Metal tab

Title: Kings of Metal
Artist: Beatsteaks
Album: Launched

I'm positive it's all the right chords (except the shit after
the scream)

Tuning: Standard


Main Riff (Verses):
 
e|---------|-----------------|---------|----------------|
B|---------|-----------------|---------|----------------|
G|-8---8-8-|--8-8---8----8-8-|-9---9-9-|----------------|
D|-8---8-8-|--8-8---8----8-8-|-9---9-9-|-6-6---6----6-6-|
A|-6---6-6-|--5-5---5----5-5-|-6---6-6-|-6-6---6----6-6-|
E|---------|-----------------|---------|-4-4---4----4-4-|

Bridge:

e|-------------------------------------------|
B|-------------------------------------------|
G|-7----5----7----5----7----5----7---4-4-4-4-|
D|-6----4----6----4----6----4----6---4-4-4-4-|
A|-8----6----8----6----8----6----8---4-4-4-4-|
E|-6----4----6----4----6----4----6---2-2-2-2-|

Chorus:

e|-------------|
B|-------------|
G|-8--11----6--|
D|-8--11-9--6--|
A|-6--9--9--4--|
E|-------7-----|

After the scream play around a little with these chords

e|---------|
B|---------|
G|---------|
D|-4-2-2-0-|
A|-4-2-2-0-|
E|-2-0-1-0-|

Yep,that's it
Tap to rate this tab
 
# A B C D E F G H I J K L M N O P Q R S T U V W X Y Z