Song name
# A B C D E F G H I J K L M N O P Q R S T U V W X Y Z

Beatsteaks - Jane Became Insane tab

Help us improve GuitareTab! Take a short survey!
Solo Guitar: Peter Baumann
Tuning: Standard
Distortion

Jane Became Insane

Solo
e---6---7----4------8---9------6---7----4------8---9----6----7----4---|           
B---------------------------------------------------------------------|           
G--6---7----4-4----8---9-9----6---7-7--4-4----8---9-9--6-6--7-7--4-4--|          
D---------------------------------------------------------------------|           
A---------------------------------------------------------------------|           
E---------------------------------------------------------------------|           

e---8----9----6----7----4----8----9---|
B-------------------------------------|
G--8-8--9-9--6-6--7-7--4-4--8-8--9-9--|
D------------------------------------|
A------------------------------------|
E-------------------------------------|

Please rate the tab
Zach 182
Related for Jane Became Insane tab