Song name
# A B C D E F G H I J K L M N O P Q R S T U V W X Y Z

Beatsteaks - Disconnected tab

----------------------------------------------------------------------------
			     DISCONNECTED - Beatsteaks
----------------------------------------------------------------------------

Tabbed by: Esmée

Tuning: standard

Drums intro

Intro:
e|-------------------------------|
B|-------------------------------|
G|-------------------------------|
D|-------------------------------|
A|----11-9-11-9--7-9-7-x---------|
E|-9---------------------5--5-5--| 2x

e|-------------------------------|
B|-------------------------------|
G|-------------------------------|
D|-------------------------------|
A|----11-9-11-9--7-9-7-x---7-9-7-|
E|-9---------------------5-------| 

e|-------------------------------|
B|-------------------------------|
G|-------------------------------|
D|-------------------------------|
A|----11-9-11-9----7-------------|
E|-9-------------9---------------| 

Verse:
e|-------------------------------|
B|-------------------------------|
G|-------------------------------|
D|-------------------------------|
A|----11-9-11-9--7-9-7-x---------|
E|-9---------------------5--5-5--| 7x
So lost..

e|-----------------------------------------------------------|
B|-----------------------------------------------------------|
G|-----------------------------------------------------------|
D|-----------------------------------------------------------|
A|----11-9-11-9--7-9-7-7-7--7-7-7-7--7-7-7-7--9-7-x----------|
E|-9------------------------------------------------5--5-5-5-|

Chorus
Is this world disconnected..

Verse:
e|-------------------------------|
B|-------------------------------|
G|-------------------------------|
D|-------------------------------|
A|----11-9-11-9--7-9-7-x---------|
E|-9---------------------5--5-5--| 3x
Like you..

e|----------------------------------|
B|----------------------------------|
G|----------------------------------|
D|----------------------------------|
A|----11-9-11-9----7-7-7-7--9-7-x---|
E|-9-------------7----------------5-|

Chorus
Is this world disconnected...

Is this world, is this world..

Distorted guitar part:
e|---------------------------------|
B|---------------------------------|
G|---------------------------------|
D|---6~----6---4~----2---1h2-1-----|
A|-4-----4---4-----4---4-------4~--|
E|---------------------------------| 2x

e|---------------------------------|
B|---------------------------------|
G|---------------------------------|
D|---6~----6---4~----2----1-x-2----|
A|-4-----4---4-----4---4--------4~-|
E|---------------------------------|

e|---------------------------------|
B|---------------------------------|
G|---------------------------------|
D|---6~----6---4~----2---1h2-1-----|
A|-4-----4---4-----4---4-------4~--|
E|---------------------------------| 2x

e|---------------------------------|
B|---------------------------------|
G|---------------------------------|
D|---6~----6---4~----2---1h2-1-----|
A|-4-----4---4-----4---4-------4~--|
E|---------------------------------| 2x

Outro (distorted)
e|--------------------------------|
B|--------------------------------|
G|--------------------------------|
D|--------------------------------|
A|----11-9-11-9--7-9-7-x----------|
E|-9---------------------5--5-5-5-| 4x
This is my disconnected world..

e|---------|
B|---------|
G|---------|
D|---------|
A|-11~-----|
E|-----5---| 3x

Tap to rate this tab
 
# A B C D E F G H I J K L M N O P Q R S T U V W X Y Z