Song name
# A B C D E F G H I J K L M N O P Q R S T U V W X Y Z

Beatsteaks - Soothe Me tab

----------------------------------------------------------------------------

BEATSTEAKS - SOOTHE ME

----------------------------------------------------------------------------

This is another Version of the great Song, Soothe Me. I think the otherones are 
better, but give it a try :)

Intro:


e|--------------------------------------------------------------------------|
B|---5---3---5---3---3---------3-------3------------1---0---1---0---0-------|
G|-5---5---5---5---5-------4-------4-------4------2---2---2---2---2---------|
D|---------------------------2---2---2---2---2---------------------------9--|
A|---------------------------------------------0~---------------------------|
E|----------------------0~--------------------------------------------0~----|

e|--------------------------------------------------------------------------|
B|-8------8-------8~--------------------------------------------------------|
G|---9------9-----9~--------------------------------------------------------|
D|-----9-----(9)--9~--------------------------------------------------------|
A|--------------------------------------------------------------------------|
E|--------------------------------------------------------------------------|


Verse:

(You can keep, ... what you've got ...)

e|--333333333333--00000000000--5555555555555--00000000000--|
B|--555555555555--00000000000--5555555555555--00000000000--|
G|--555555555555--00000000000--5555555555555--00000000000--|
D|--555555555555--22222222222--7777777777777--22222222222--|  2x
A|--333333333333--22222222222--7777777777777--22222222222--|
E|--333333333333--00000000000--5555555555555--00000000000--|

PreChorus:

(What I never dared to say ...)

e|--444----------------------333--|
B|--555----------------------333--|
G|--666----------------------444--|
D|--666----------------------555--|
A|--444----------------------555--|
E|--444----------------------333--|

Verse:

(The sun comes up ...)

Play the intro again,

and than 1x Verse

Chorus:

(What I never dared to say, I'm pretty sure you know it anyway ... )

e|--4444444444444--333333333333333--33333333333333333--33333333333333333--|
B|--5555555555555--333333333333333--55555555555555555--33333333333333333--|
G|--6666666666666--444444444444444--55555555555555555--44444444444444444--|
D|--6666666666666--555555555555555--55555555555555555--55555555555555555--|
A|--4444444444444--555555555555555--33333333333333333--55555555555555555--|
E|--4444444444444--333333333333333--33333333333333333--33333333333333333--|

(Yeah Yeah Yeah Yeah ... Yeah Yeah Yeah Yeah ... )

e|--444444444444444---3333333333333333--|
B|--555555555555555---3333333333333333--|
G|--666666666666666---4444444444444444--|
D|--666666666666666---5555555555555555--| 2x
A|--444444444444444---5555555555555555--|
E|--444444444444444---3333333333333333--|

Than play the Chorus again and end on this:

e|----|
B|----|
G|----|
D|-5~-|
A|-3~-|
E|-1~-|


 Lukas Schramm
Tap to rate this tab
# A B C D E F G H I J K L M N O P Q R S T U V W X Y Z