Beatsteaks - She Was Great tab

Guitar: Peter & Bernd
Tuning: Standard

„She was great“


1st Chorus

e------------------------------------------------------------------------|
B------------------------------------------------------------------------|
G--11-11-11-11-11-11-11-11-11-11-11-11-11-11-11-11-11-11-11-11-11-11-11--|
D------------------------------------------------------------------------|
A------------------------------------------------------------------------|
E------------------------------------------------------------------------|

e------------------------------|
B------------------------------|  
G--11-11-11-11-11-11-11-11-11--|
D------------------------------|
A------------------------------|
E------------------------------|



2nd Verse                     

e--------------------------------------------------------------|
B—-------------------------------------------------------------|
G--10-11—-10-11--8-10--10-11—-10-8--10-11--13-11—-8-10—-10-11--|
D--11-11--11-11--8-11—-11-11--11-8--11-11--13-11--8-11--11-11--|
A--------------------------------------------------------------|
E--------------------------------------------------------------|


2nd Chorus

e------------------------------------------------------------------------|
B------------------------------------------------------------------------|
G--11-11-11-11-11-11-11-11-11-11-11-11-11-11-11-11-11-11-11-11-11-11-11--|
D------------------------------------------------------------------------|
A------------------------------------------------------------------------|
E------------------------------------------------------------------------|

e------------------------------|
B------------------------------|   2x
G--11-11-11-11-11-11-11-11-11--|
D------------------------------|
A------------------------------|
E------------------------------|


1st Break

e-------------------------------------------------------------------------|
B-------------------------------------------------------------------------|   
G----11--8--8----10--10-10-11-------10----11----11--8--8----10--10-10-11--|
D--9-----6----6--11--11-11-11----11----11-11--9-----6----6--11--11-11-11--|
A-------------------------------------------------------------------------|
E-------------------------------------------------------------------------|

e---------------------------------------------------------|
B---------------------------------------------------------|   
G----------------11--8--8----10--10-10-11-------10----11--|
D--------------9-----6----6--11--11-11-11----11----11-11--|
A----4----1-----------------------------------------------|
E--4----2-------------------------------------------------|


e------------------------------------|
B------------------------------------|
G----11--8--8----10--10-10-11--------|
D--9-----6----6--11--11-11-11--------|
A--------------------------------9/--|
E------------------------------------|



3rd Verse

e--------------------------------------------------------------------|
B—------------------------------------------------16-14----14----16--|
G--10-11—-10-11--8-10--10-11—-10-8--10-11—-10-11--15-13----13----15--|
D--11-11--11-11--8-11—-11-11--11-8--11-11—-11-11--------15----16-----|
A--------------------------------------------------------------------|
E--------------------------------------------------------------------|

e-----------------------------------------------------------------|
B-----14----16----------------------------------------------------|  
G-----13----15-----10----11-----10----11--8-8-10-10—-10-10-11-15--|
D--15----16-----11-11----11--11-11----11--8-8-11-11--11-11-11-13--|
A---------------------9------------9------------------------------|
E-----------------------------------------------------------------|



3rd Chorus

e------------------------------------------------------------------------|
B------------------------------------------------------------------------|
G--11-11-11-11-11-11-11-11-11-11-11-11-11-11-11-11-11-11-11-11-11-11-11--|
D------------------------------------------------------------------------|
A------------------------------------------------------------------------|
E------------------------------------------------------------------------|

e------------------------------|
B------------------------------|   2x
G--11-11-11-11-11-11-11-11-11--|
D------------------------------|
A------------------------------|
E------------------------------|


2nd Break

e-------------------------------------------------------------------------|
B-------------------------------------------------------------------------|   
G----11--8--8----10--10-10-11-------10----11----11--8--8----10--10-10-11--|
D--9-----6----6--11--11-11-11----11----11-11--9-----6----6--11--11-11-11--|
A-------------------------------------------------------------------------|
E-------------------------------------------------------------------------|


Please rate the tab…
Zach 182
Tap to rate this tab
 
# A B C D E F G H I J K L M N O P Q R S T U V W X Y Z