Song name
# A B C D E F G H I J K L M N O P Q R S T U V W X Y Z

Beatsteaks - Milk Honey tab

Intro
 e----5-5-5-4-4-4-4-5-4-5-|
 B----2-2-2-0-0-0-0-2-0-2-|
 G------------------------|  2x
 D------------------------|
 A------------------------|
 E------------------------|

Pre-Intro/Chorus

 e-----------------------------------------------------------------------|
 B-----------------------------------------------------------------------|
 G-------1-----1-2---2---------------1-----1-2-1-----------1-----1-2---2-|
 D---4-----2-4-----2---4-2-0---0-2-4---2-4-------4-2-4-0-4---2-4-----2---|
 A-4---4---------------------4-------------------------------------------|
 E-----------------------------------------------------------------------|

 e---------------------------|
 B---------------------------|
 G-----------------1-1-----1-|
 D-4-4-2-0---0-2-4-----2-4---|
 A---------4-----------------|
 E---------------------------|
Tap to rate this tab
 
# A B C D E F G H I J K L M N O P Q R S T U V W X Y Z