Beatsteaks - Under A Clear Blue Sky tab

Beatsteaks - Under A Clear Blue Sky

Album: Boombox
Instrument: Guitar
Tuning: eBGDAE

Tabbed By: Rolf Oslo


Intro

    F     C     Dm7   Cmaj7 F       C     Dm7   Em
e||-----|-0-----1-----0-----------|-0-----1-----0---------|
B||-6---|-1-----1-----0-----6-----|-1-----1-----0---------|
G||-5---|-0-----3-----0-----5-----|-0-----3-----0---------|
D||-3---|-2-----0-----2-----3-----|-2-----------2---------|
A||-----|-3-----------3-----------|-3-----------2---------|
E||-----|-------------------------|-------------0---------|
         <--------- x3 ----------> 


Guitar #1
play Am

Guitar #2
e||---------------------|
B||---------------------|
G||-----------5----4----|
D||-7----5--------------|
A||---------------------|
E||---------------------|


VERSE

Am                               Dm
If old friends ain't soothing no more

     Dm                       Am
they may have been cheating before

    Am                        Dm
You think there is nothing in store

        Dm                          Am
You got time on your hands but what for?

    Am                          F
The shields will come off after dark

    Dm                        Am
for troubled souls and broken hearts

      G
Stand naked before the crowd



CHORUS

F5      C5              F5  D5
Under a clear blue sky

A5          G5          F5  C5
No mountain high enough

F5        D5             A5
No matter what will come

          G5
I'm gonna cheer you up


SOLO PART

Guitar #1
A5 - D5 - D5 - A5 - A5 - F5 - D5 - A5 - G5


Guitar #2
e||-5-5--5-5--7-8-7-5-------------10-------13-12-10----17----19-17----|
B||-5-5--5-5----------5--------10----10-------------17----17-------17-|
G||-5-5--5-5------------5---------------10----------------------------|
D||-----------------------7-------------------------------------------|
A||-------------------------------------------------------------------|
E||-------------------------------------------------------------------|

e||-20-19-17-------------13----15-13--------10----12-10----|
B||----------17-------------13-----------------10-------10-|
G||-------------17----14-------------14--10----------------|
D||----------------19--------------------------------------|
A||--------------------------------------------------------|
E||--------------------------------------------------------|

e||--------------------------------|
B||--------------------------------|
G||-5---5---5---5---5---5---5---5--|
D||---7---7---7---7---7---7---7----|
A||--------------------------------|
E||--------------------------------|



CHORUS

F5      C5              F5  D5
Under a clear blue sky

A5          G5          F5  C5
No mountain high enough

F5        D5             A5
No matter what will come

          G5
I'm gonna cheer you up



VERSE

Am

Am                             Dm
If old songs ain't soothing no more

     Dm                       Am
they may have been cheating before

    Am                             Dm
You think all that love is out the door

        Dm                          Am
You got time on your hands but what for?


e||------------------|
B||------------------|
G||------------------|
D||-5--6--7--5--6--7-|
A||-5--6--7--5--6--7-|
E||-3--4--5--3--4--5-|

    Am                          F
The shields will come off after dark

    Dm                        Am
for troubled souls and broken hearts

    G
and all that you wanted to know



CHORUS

F5      C5              F5  D5
Under a clear blue sky

A5          G5          F5  C5
No mountain high enough

F5        D5             A5
No matter what will come

G5        F5           C5
I'm gonna cheer you up

F5      D5             A5  G5      
Under a clear blue sky

F5          C5          F5  D5
No mountain high enough

A5                        G5
No matter what will come

F5          C5
we're gonna rise


OUTRO 

Guitar #1
C5 - D5 - C5 - F5 x3

C5 - D5 - e5 - f5


Guitar #2
e||-3------3-----3------3------|-3------3-----5------5------|
B||----5-----5------6-----6----|----5-----5------5-----5----|
G||------5-----5------5-----5--|------5-----5------5-----5--|
D||----------------------------|----------------------------|
A||----------------------------|----------------------------|
E||----------------------------|----------------------------| x2

e||----8-----8----8---8---------------------------|
B||-8---------------------------------------------|
G||------10----9----7----5--7--9--9-9-5-7-9-------|
D||-----------------------------------------7--5--|
A||-----------------------------------------------|
E||-----------------------------------------------|
                                                          end with
e||----8-----8-----10-----10-----12-----12---10--10--10--|-8------|
B||----8-----8-----10-----10-----12-----12---10--10--10--|-8------|
G||----9-----9-----10-----10-----12-----12---10--10--10--|-9------|
D||-10----10----12-----12-----14-----14------12--12--12--|-10-----|
A||------------------------------------------------------|--------|
E||------------------------------------------------------|--------|
Tap to rate this tab
 
# A B C D E F G H I J K L M N O P Q R S T U V W X Y Z