Song name
# A B C D E F G H I J K L M N O P Q R S T U V W X Y Z

Beatsteaks - Milk And Honey tab

Beatsteaks - Milk and Honey

Album: Boombox
Instrument: Guitar
Tuning: eBGDAE

Tabbed By: Rolf Oslo


Intro

e||---------------------------------|
B||-10--10-10-9--9-9-9---10--9--10--|
G||-9---9--9--9--9-9-9---9---9--9---|
D||-11--11-11-9--9-9-9---11--9--11--|
A||---------------------------------|
E||---------------------------------| x2


Guitar #1
Fm - E - A - D - Bm - E - A 
D - E - A - D - Bm - E

Guitar #2
e||-------------------------------|------------------------|
B||-------------------------------|------------------------|
G||-------1------1-2---2----------|-------1------1-2-1-----|
D||-4---4----2-4-----2---4--2-0---|-0-2-4----2-4-------4-2-|
A||---4-------------------------4-|------------------------|
E||-------------------------------|------------------------|

e||-------------------------------|----------------|
B||-------------------------------|----------------|
G||-------1------1-2---2----------|-------1------1-|
D||-4-0-4----2-4-----2---4--2-0---|-0-2-4----2-4---|
A||-----------------------------4-|----------------|
E||-------------------------------|----------------|


Verse

e||----5----5------4---4------2----2------2----2---|----2----2------4----4---|
B||----5----5------5---5------2----2------2----2---|----3----3------5----5---|
G||----6----6------6---6------2----2------2----2---|----4----4------6----6---|
D||----7----7---6----6--------4----4------4----4---|-4----4------6----6------|
A||-7----7------4----4-----4----4------4----4------|-2----2------4----4------|
E||-5----5-----------------2----2------2----2------|-------------------------| x3


Pre-Chorus

e||---------------------|
B||-2---3-3---2---7-7---|
G||-2---4-4---2---7-7---|
D||-2---4-4---2---7-7---|
A||-0---2-2---4---5-5---|
E||---------------------|


Chorus

Guitar #1 
Fm - E - A - D - Bm - E - A 
D - E - A - D - Bm - E - A  

Fm - E - A - D - Bm - E - A 
D - E - A - D - Bm - E 

Guitar #2
e||-------------------------------|------------------------|
B||-------------------------------|------------------------|
G||-------1------1-2---2----------|-------1------1-2-1-----|
D||-4---4----2-4-----2---4--2-0---|-0-2-4----2-4-------4-2-|
A||---4-------------------------4-|------------------------|
E||-------------------------------|------------------------|

e||-------------------------------|------------------------|
B||-------------------------------|------------------------|
G||-------1------1-2---2----------|-------1------1-2-1-----|
D||-4-0-4----2-4-----2---4--2-0---|-0-2-4----2-4-------4-2-|
A||-----------------------------4-|------------------------|
E||-------------------------------|------------------------|

e||-------------------------------|------------------------|
B||-------------------------------|------------------------|
G||-------1------1-2---2----------|-------1------1-2-1-----|
D||-4-2-4----2-4-----2---4--2-0---|-0-2-4----2-4-------4-2-|
A||-----------------------------4-|------------------------|
E||-------------------------------|------------------------|

e||-------------------------------|----------------|
B||-------------------------------|----------------|
G||-------1------1-2---2----------|-------1------1-|
D||-4-0-4----2-4-----2---4--2-0---|-0-2-4----2-4---|
A||-----------------------------4-|----------------|
E||-------------------------------|----------------|


Solo

Guitar #1
A - C#m - Fm - Fm
Bm - C#m

Guitar #2
e||-------------5--5---5---------------------9--9---9-----|
B||------------------5---5------------------------9---9---|
G||------------------------6----------------------------9-|
D||-----------7---------------------------11--------------|
A||------7--7----------------------11--11-----------------|
E||-5--5----------------------9--9------------------------|

e||------------------14--14----14----------------------9--9----9-------|--------------------|
B||-------------------------14----14------------------------10---10----|-7---7-7-8-9----9---|
G||----------------------------------14-------------11--------------11-|-7---7-7-8-9----9---|
D||---------------16-------------------------11--11--------------------|--------------------|
A||--------16--16-----------------------9--9---------------------------|--------------------|
E||-14--14-------------------------------------------------------------|--------------------|


Verse

e||----5----5------4---4------2----2------2----2---|----2----2------4----4---|
B||----5----5------5---5------2----2------2----2---|----3----3------5----5---|
G||----6----6------6---6------2----2------2----2---|----4----4------6----6---|
D||----7----7---6----6--------4----4------4----4---|-4----4------6----6------|
A||-7----7------4----4-----4----4------4----4------|-2----2------4----4------|
E||-5----5-----------------2----2------2----2------|-------------------------| x2


Pre-Chorus

e||---------------------|
B||-2---3-3---2---7-7---|
G||-2---4-4---2---7-7---|
D||-2---4-4---2---7-7---|
A||-0---2-2---4---5-5---|
E||---------------------|



Chorus

Guitar #1 
Fm - E - A - D - Bm - E - A 
D - E - A - D - Bm - E - A  

Fm - E - A - D - Bm - E - A 
D - E - A - D - Bm - E - A

Guitar #2
e||-------------------------------|------------------------|
B||-------------------------------|------------------------|
G||-------1------1-2---2----------|-------1------1-2-1-----|
D||-4---4----2-4-----2---4--2-0---|-0-2-4----2-4-------4-2-|
A||---4-------------------------4-|------------------------|
E||-------------------------------|------------------------|

e||-------------------------------|------------------------|
B||-------------------------------|------------------------|
G||-------1------1-2---2----------|-------1------1-2-1-----|
D||-4-0-4----2-4-----2---4--2-0---|-0-2-4----2-4-------4-2-|
A||-----------------------------4-|------------------------|
E||-------------------------------|------------------------|

e||-------------------------------|------------------------|
B||-------------------------------|------------------------|
G||-------1------1-2---2----------|-------1------1-2-1---1-|
D||-4-2-4----2-4-----2---4--2-0---|-0-2-4----2-4-------4---|
A||-----------------------------4-|------------------------|
E||-------------------------------|------------------------|

e||-------------------------------|------------------------|
B||-------------------------------|------------------------|
G||-2---2-1-----------------------|-------1------1-2-1-----|
D||---2------4-2-0-----2-4--2-0---|-0-2-4----2-4-------4---|
A||----------------4-0----------4-|------------------------|
E||-------------------------------|------------------------|


Outro

Guitar #1
D - E - A - D - Bm - E - A
D - E - A - D - Bm - E - A

Guitar #2
e||--------------------------------|--------------------------------|
B||-10--10-10-9--9-9-9--10--9--10--|-10--10-10-9--9-9-9-10-10-10-10-|
G||-9---9--9--9--9-9-9--9---9--9---|-9---9--9--9--9-9-9-9--9--9--9--|
D||-11--11-11-9--9-9-9--11--9--11--|-11--11-11-9--9-9-9-11-11-11-11-|
A||--------------------------------|--------------------------------|
E||--------------------------------|--------------------------------|

e||--------------------------------|--------------------------|
B||-10--10-10-9--9-9-9--10--9--10--|-10--10-10-9--9-9-9-10----|
G||-9---9--9--9--9-9-9--9---9--9---|-9---9--9--9--9-9-9-9-----|
D||-11--11-11-9--9-9-9--11--9--11--|-11--11-11-9--9-9-9-11----|
A||--------------------------------|--------------------------|
E||--------------------------------|--------------------------|
Tap to rate this tab
 
# A B C D E F G H I J K L M N O P Q R S T U V W X Y Z