Song name
# A B C D E F G H I J K L M N O P Q R S T U V W X Y Z

Beatsteaks - Hey Du tab

Artist: Beatsteaks
Song: Hey du
Album: Kanonen auf Spatzen
Tabbed by: Necriononguitar
E-Mail: Tim.Rathgen@web.de

Den Hauptteil des Liedes spielt nur die erste Gitarre, deshalb sag ich später an, wann 
Zweite mitspielt.

Für den Text die "chords" Version angucken. Da stehen die Akkorde auch drin, dieser hier 
den Anschlag.

Intro:
E----------------------------------------------|
B-------3--------3----------3-----------3------|
G-------0--------0----------0-----------0------|
D-------0--------0----------0-----------0------|  x2
A----------------------------------------------|
E--3-3-----3-3-3-----3-3-3-------3-3-3------3--|

Vers:
E------------------------------------------------|
B-------3---------1---------3-----3-----3--------|
G-------0---------0---------2-----2-----2--------|
D-------0---------2----0-0-----0-----0-----0-----|  x2
A------------3-3-----3---------------------------|
E--3-3-----3-------------------------------------|

Vers Part 2 (oder Pre-Chorus):
E--------------------------------------------|
B------1--------3--------3-----------1-------|
G------2--------2--------0-----------0-------|
D------2---0--0----------0-----------2-------|  x 3
A--0-0-------------------------3--3----------|
E-------------------333----------------------|

Beim 3. mal spielt man den letzten Akkord (C) so:
E--------------------------------------|
B--------1------1------1---------------|
G--------0------0------0---------------|
D--------2------2------2---------------|
A--3--3------3------3-----3------------|
E--------------------------------------|
Und dann: (Die Klammern bedeuten, dass man die Töne nicht mitspielen muss)
E--------------------------------------------|
B------(1)-----(1)----------3-----3-----3----|
G------(2)-----(2)----------2-----2-----2----|
D---2-2-2-2-2-2-2-2---0--0-----0-----0-------|
A---0-0-0-0-0-0-0-0--------------------------|
E--------------------------------------------|

Chorus:
Aber deine Trauer wird vorbei geh'n
E------------------------------------------------------|
B---------1------1-----1------------3-----3-----3------|
G---------0------0-----0------------2-----2-----2------|
D---------2------2-----2------0--0-----0-----0----0----|
A---3--3------3-----3-----3----------------------------|
E------------------------------------------------------|

Dit wees ick, dit kann ich dir anseh'n
E-------------------------------------------------|
B--------3----------3--1-------1-----1-----1------|
G--------0----------0--0-------0-----0-----0------|
D--------0----------0--2-------2-----2-----2------|
A----------------------3----3-----3-----3-----3---|
E---3-3------3-3-3--------------------------------|

Bald wirst du wieder stolz und glücklich sein...
E--------------------------------------------|
B---------1---------1---------3-------3------|
G---------2---------2---------2-------2------|
D---------2---------2-----0-0---0-0-0---0----|
A---0--0-----0-0-0-----0---------------------|
E--------------------------------------------|

Denn Du bist schön, sogar schön. Auch, wenn du weinst.
E------------------------------------------------|
B-------3--------3---1------1---------3----------|
G-------0--------0---0------0---------2----------|
D-------0--------0---2------2-----00-----0-------|
A--------------------3---3-----3-----------------|
E--3-3-----3-3-3---------------------------------|

E----------------------------------------------------|
B--------3--------3----------------------------------|
G--------0--------0----------------------12----------|
D--------0--------0---------------12-----------------|
A-----------------------------10------10-------------|
E---3-3-----3-3-3-----3-----------------------12\----|

VersII :
Das Selbe wie bevor, man muss sich auch nicht immer an den vorgegebenen Anschlag halten.
Hier beginnt die zweite Gitarre ein wenig an zu spielen.
E----------7-----------7------------------|
B-------8-----8-----8-----8---------------|
G----7-----------7-----------7------------|
D-----------------------------------------|  Das ist G, aber höher
A-----------------------------------------|
E-----------------------------------------|

Der 2. Part ist auch gleich.

Der Chorus auch. Aber, nachdem man "Denn du bist schön, sogar schön" gespielt hat, kommt 
hier: (G,C,D,G,C,D
E---------------------------------------------------|
B-----1-----1-----1--------3-----3----3------3------|
G-----0-----0-----0--------2-----2----2------0------|
D-----2-----2-----2-----0-----0-----0----0---0------|
A--3-----3-----3-----3-----------------------x------|
E--------------------------------------------3------|

Bridge:
Nur der Bass spielt:
E----------------------------------------------------|
B----------------------------------------------------|
G----------------------------------------------------|
D----------------------------------------------------|
A--5-x8-----------5-x8-----------------6-x4--7-x4----|
E----------3-x8-----------3-x8---7-x4----------------|

E-------------------------------------------|
B-------------------------------------------|
G-------------------------------------------|
D-------------------------------------------|
A-----------3-x8----5-x16-------------------|
E---3-x4------------------------------------|

Interlude:
Beide Gitarren spielen:
E-----------------------------------------------------------------------------|
B-----------------------------------------------------------------------------|
G--5------7------------5-----------7------------8-----9------------5-----7----|
D--5-x8---7-x8--5------5-x8--7-----7-x8--9------8-x4--9-x4--5------5-x8--7----|x9
A--3------5-----5-x8---3-----7-x8--5-----9-x4---6-----7-----5-x4---3-----5----|
E---------------3------------5-----------7------------------3-----------------|

Die 2. Gitarre kann uach das hier spielen, oder eine Dritte (Arnim z.B.)
E---3------3-------3-------3-------3-------3------|
B------3-------3-------3-------3-------3----------|
G-------------------------------------------------|
D-------------------------------------------------|  Immer wieder
A-------------------------------------------------|
E-------------------------------------------------|

Outro:
Nur die 1. Gitarre spielt:
"Wie jut, dit mir manchmal so'n Engel erscheint, wie die Schweiz. Und für mich weint."
E-----------------------------------------------|
B---3------1------3----1----2----3----3---------|
G---0------0------2----0----0----2----0---------|
D---0------2------0----2----0----0----0---------|
A---x------3-----------3----x---------x---------|
E---3-----------------------3---------3---------|

Das wars! Bitte ERST kommentieren und DANN raten.
Danke
Tap to rate this tab
# A B C D E F G H I J K L M N O P Q R S T U V W X Y Z