Song name
# A B C D E F G H I J K L M N O P Q R S T U V W X Y Z

Beatsteaks - Loyal To None tab

Beatsteaks

Loyal to none


tabbed by: Baumi


Tuning: 1/2 step down


Intro:
       
|-------------------------------|
|-------------------------------|
|-------------------------------|  also 2nd guitar riff
|----14-14-14-14-141414-1414----|
|-------------------------------|
|----12-12-12-12-121212-1212----|
|-------------------------------|


Verse:
|-----------------|
|-----------------|
|----5------------|
|----5----5--7----|
|----3----5--7----|
|---------3--5----|


Chorus
|-----------------|
|-----------------|
|---------7-------|
|----5----7--7----|
|----5----5--7----|
|----3-------5----|
Tap to rate this tab
 
# A B C D E F G H I J K L M N O P Q R S T U V W X Y Z