Song name
# A B C D E F G H I J K L M N O P Q R S T U V W X Y Z

Beatsteaks - Not Ready To Rock tab

-------------------------------------------------------------------------------
BEATSTEAKS – Not Ready To Rock
-------------------------------------------------------------------------------
from “Living Targets”

Tabbed by:Audio84ave
Email:y.kumar@web.de

Tuning: Flat (Eb,Ab,Db,Gb,Bb,eb)


A very simple-structured song, but fun to play! Enjoy!



Intro:
distorted
e|---------------------------------------------------------------------------|
B|---------------------------------------------------------------------------|
G|---------------------------------------------------------------------------|
D|---------5~--------------5-4~----------------------------------------------|
A|-----4-----------------4-------------4-7~---4~-----------------------------|
E|---------------------------------------------------------------------------|
“My Name is Tom… and I´m funky!”

		  (x4)
e|---------------------|
B|---------------------|
G|---------------------|
D|--6--66666666669-----|
A|--4--44444444447-----|
E|---------------------|



Verse/Chorus:	  
e|---------------------|
B|---------------------|
G|--6—-66666666669-----|
D|--6--66666666669-----|
A|--4--44444444447-----|
E|---------------------|
 “I won´t shake my ass…”


Little Bridge:
e|--------------------------------|
B|--------------------------------|
G|--------------------------------|
D|--6-6-6-6-6-6-65-4-4-4-4-4-4-4-2|
A|--6-6-6-6-6-6-65-4-4-4-4-4-4-4-2|
E|--4-4-4-4-4-4-43-2-2-2-2-2-2-2-0|
    “Oooh my god, this band is tight…”


Then the Verse/CHORUS: 
e|---------------------|
B|---------------------|
G|--6—-66666666669-----|
D|--6--66666666669-----|
A|--4--44444444447-----|
E|---------------------|
“I´m not ready to rock!”



Little Outro riff:
e|----0-0-0-0-0--0---|
B|---5-5-4-4-5-5-4---|
G|-------------------|
D|-------------------|
A|-------------------|
E|-------------------|






Lyrics:

I won't shake my ass
won't rock the desk
I won't hold a mess 
but I do confess
that I come clean 
I use vaseline 
so fuck the scene 
know what I mean? 

Oh, my god this band is tight
oh, my god I cannot hide 

I'm not ready to rock.





Song Order:

Intro
Verse (x4)
Bass Interlude
Verse (x4)
Bridge
Chorus (x2)
Bridge
Chorus (x2)
Verse 
Outro


| /  slide up
| \  slide down
| h  hammer-on
| p  pull-off
| ~  vibrato
| +  harmonic
| x  Mute note
===============================================================================


Tap to rate this tab
# A B C D E F G H I J K L M N O P Q R S T U V W X Y Z