Song name
# A B C D E F G H I J K L M N O P Q R S T U V W X Y Z

Beatsteaks - Jane Became Insane tab

*** Jane Became Insane ***
 
          by the

***     Beatsteaks     ***

	tabbed by

***	   4K	       ***

Dots mean staccato, forward slashes mean tremolo.
Yes, it's sort of a two and a half bar beat!


Intro:		  Main Riff:

  1 + 2 + 3 + 4 + 1 + 2 + 3 + 4 + 1 + 2 + 3 + 4 + 1 + 2 + 
e|2---2---2---2--|---------------------------------------|
h|x---x---x---x--|---------------------------------------|
g|---------------|---------------------------------------|
d|---------------|4-4---5-5-5---2-2-2---6-6-6---7-7-7---4| x 1
a|---------------|4-4---5-5-5---2-2-2---6-6-6---7-7-7---4|
E|---------------|2-2---3-3-3---0-0-0---4-4-4---5-5-5---2|


Band in:

  1 + 2 + 3 + 4 + 1 + 2 + 3 + 4 + 1 + 2 + 
e|---------------------------------------|
h|---------------------------------------|
g|---------------------------------------| x 1 without vox
d|4-4---5-5-5---2-2-2---6-6-6---7-7-7---4|
a|4-4---5-5-5---2-2-2---6-6-6---7-7-7---4| x 4 with vox "Jane Bacame Insane"
E|2-2---3-3-3---0-0-0---4-4-4---5-5-5---2|
 |					 | x 4 with usual lyrix
 |					 |
 | 					 |
 |1 + 2 + 3 + 4 + 1 + 2 + 3 + 4 + 1 + 2 +|
e|6-6---7-7-7---4-4-4---8-8-8---9-9-9---6|
h|7-7---8-8-8---5-5-5---9-9-9---101010--7|
g|6-6---7-7-7---4-4-4---8-8-8---9-9-9---6|
d|---------------------------------------|
a|---------------------------------------|
E|---------------------------------------|


Bridge:

  1 + 2 + 3 + 4 + 1 + 2 + 3 + 4 + 1 + 2 + 3 + 4 + 1 + 2 + 3 + 4 +   	
e|-------------------------------|-------------------------------|
h|-------------------------------|-------------------------------|
g|6-6-6-6-6-6-6-6-6-6-6-6-6-6-6-6|4-4-4-4-4-4-4-4-4-4-4-4-4-4-4-4|
d|6-6-6-6-6-6-6-6-6-6-6-6-6-6-6-6|4-4-4-4-4-4-4-4-4-4-4-4-4-4-4-4|
a|4-4-4-4-4-4-4-4-4-4-4-4-4-4-4-4|2-2-2-2-2-2-2-2-2-2-2-2-2-2-2-2|
E|-------------------------------|-------------------------------|
 |								 |
 |								 |
 |								 | x 1
 |1 + 2 + 3 + 4 + 1 + 2 + 3 + 4 + 1 + 2 + 3 + 4 + 1 + 2 + 3 + 4 +| 
e|4--------------|4--------------|2--------------|----2----------|
h|5--------------|5--------------|4--------------|4-5---5-4-5----|
g|6--------------|6--------------|4--------------|---------------|
d|6--------------|6--------------|4--------------|---------------|
a|4--------------|4--------------|2--------------|---------------|
E|---------------|---------------|---------------|---------------|
(2nd guitar like that...)


Chorus:

  1 + 2 + 3 + 4 + 1 + 2 + 3 + 4 + 1 +  	
e|-----------------------------------|
h|-----------------------------------|
g|9-9---4-4-4---6-6-6----------------|
d|9-9---4-4-4---6-6-6---6-6-6---7-7-7| x 4
a|7-7---2-2-2---4-4-4---6-6-6---7-7-7|
E|0-0-------------------4-4-4---5-5-5|


Vers;


Crazy Part:

  1 + 2 + 3 + 4 + 1 + 2 + 3 + 4 + 1 + 2 + 3 + 4 + 1 + 2 + 3 + 4 + 
e|-------------------------------|-------------------------------|
h|-------------------------------|-------------------------------|
g|6-6-6-6-6-6-6-6-6-6-6-6-6-6-6-6|8-8-8-8-8-8-8-8-8-8-8-8-8-8-8-8|
d|6-6-6-6-6-6-6-6-6-6-6-6-6-6-6-6|8-8-8-8-8-8-8-8-8-8-8-8-8-8-8-8|
a|4-4-4-4-4-4-4-4-4-4-4-4-4-4-4-4|6-6-6-6-6-6-6-6-6-6-6-6-6-6-6-6|
E|-------------------------------|-------------------------------|
 |								 |
 |								 |
 |								 |
 |1 + 2 + 3 + 4 + 1 + 2 + 3 + 4 + 1 + 2 + 3 + 4 + 1 + 2 + 3 + 4 +|  	
e|-------------------------------|-------------------------------|
h|----------------8/////9////////|----------------8/////9////////|
g|6///////////////---------------|8///////////////---------------|
d|-------------------------------|-------------------------------|
a|-------------------------------|-------------------------------|
E|-------------------------------|-------------------------------|


  1 + 2 + 3 + 4 + 1 + 2 + 3 + 4 + 1 + 2 + 3 + 4 + 1 + 2 + 3 + 4 + 
e|-------------------------------|-------------------------------|
h|-------------------------------|-------------------------------|
g|6-6-6-6-6-6-6-6-6-6-6-6-6-6-6-6|8-8-8-8-8-8-8-8-8-8-8-8-8-8-8-8|
d|6-6-6-6-6-6-6-6-6-6-6-6-6-6-6-6|8-8-8-8-8-8-8-8-8-8-8-8-8-8-8-8|
a|4-4-4-4-4-4-4-4-4-4-4-4-4-4-4-4|6-6-6-6-6-6-6-6-6-6-6-6-6-6-6-6|
E|-------------------------------|-------------------------------|
 |								 |
 |								 |
 |								 |
 |1 + 2 + 3 + 4 + 1 + 2 + 3 + 4 + 1 + 2 + 3 + 4 + 1 + 2 + 3 + 4 +|  	
e|-------------------------------|-------------------------------|
h|----------------8/////9////////|7///////////////8/////9////////|
g|9///////////////---------------|-------------------------------|
d|-------------------------------|-------------------------------|
a|-------------------------------|-------------------------------|
E|-------------------------------|-------------------------------|


Main Riff;


Crazy Solo (with Main Riff, play it as weired as possible):

  1 + 2 + 3 + 4 + 1 + 2 + 3 + 4 + 1 + 2 +   	
e|---------------------------------------|
h|----14------15------12-------16------17|
g|-11-.---12--.-----9-.----13--.----14-.-| x 2 w/o vox
d|-.------.---------.------.--------.----| x 1 with vox
a|---------------------------------------|
E|---------------------------------------|


Bridge;
Chorus; 

Chorus with 2nd guitar playing something like this:

  1 + 2 + 3 + 4 + 1 + 2 + 3 + 4 + 1 + 2 +   	
e|--0---0---0---0---0---0---0---0---0---0|
h|----0-------0-------0-------0-------0--|
g|---------------------------------------|
d|---------------------------------------|
a|--------2-------4----------------------|
E|0-----------------------4-------5------|


let ring... 
Tap to rate this tab
 
# A B C D E F G H I J K L M N O P Q R S T U V W X Y Z