Guitaretab - guitar tabs
Song name
# A B C D E F G H I J K L M N O P Q R S T U V W X Y Z

Beatsteaks - E-g-o tab

Artist: Beatsteaks
Song: E-G-O


Intro:
Guitar 1:
--12----------------12---12---12---12-|
--12----------------12---12---12---12-|
--13----------------13---13---13---13-|
--14----------------14---14---14---14-|
--------------------------------------|
--------------------------------------|

Guitar 2:
---------------------------------------|
---------------------------------------|
---------------------------------------|
----7----7---7----7----7---7----7----7-|
--0---0----0----0---0----0----0---0----|


Part 1: 2x
Iím taking my time, no need to rewind.....

Guitar 1:
--8--8---7-5-7-5-5---8--8---7-5-7-5---3-5-7--3-5-7--3-5---7-4-5--7-4-5--7-4-|
--10-10--8-8-8-8-8---10-10--8-8-8-8---3-3-3--3-3-3--3-3---5-5-5--5-5-5--5-5-|
--9--8---7-7-7-7-7---9--8---7-7-7-7---4-4-4--4-4-4--4-4---4-4-4--4-4-4--4-4-|
----------------------------------------------------------------------------|
----------------------------------------------------------------------------|
----------------------------------------------------------------------------|
Guitar 2:						
                                    ----------------------------------------|
Play the following Barre Chords:    ----------------------------------------|
Am, F, Am, F ,G                     ----2---2---2---2-----------------------|
                                    ----------------------------------------|
                                    --0---0---0---0-------------------------|


Part 2, Version 1:
Feed my E-G-O, watch it grow and grow...
Guitar 1
--13-----12------13------12------10------12------7-|
--13-----13------13------13------10------13------7-|
--14-----14------14------14------10------14------8-|
--15-----14------15------14------12------15------9-|
-------------------------------------------------9-|
----------------------------------------------12\7-|

Guitar 2
--5------8-------5-------8-------5-------8-------7-|
--6-----10-------6------10-------6------10-------7-|
--5------9-------5-------9-------5-------9-------8-|
--7-----10-------7------10-------7------10-------9-|
-------------------------------------------------9-|
-------------------------------------------------7-|

Play Part 1 again 2x
From the mind to the record from the soul to the throat ....

Part 2, Version 2:
Feed my E-G-O, watch it grow and grow.
Guitar 1:
--13-----12------13------12------10------12------7----|
--13-----13------13------13------10------13------7----|
--14-----14------14------14------10------14------8--8x|
--15-----14------15------14------12------15------9----|
-------------------------------------------------9----|
-------------------------------------------------7----|

Guitar 2:
--5------8-------5-------8------10-------8-------7----|
--6-----10-------6------10------10------10-------7----|
--5------9-------5-------9------11--4x---9--4x---8--8x|
--7-----10-------7------10------12------10-------9----|
---------------------------------12--------------9----|
---------------------------------10--------------7----|


[ Tab from: http://www.guitaretab.com/b/beatsteaks/88852.html ]
Bridge
Guitar 1:
--------------------------------------------------------------------|
--------------------------------------------------------------------|
--------------------------------------------------------------------|
-------------------0---------------------0--------------------------|
--0-----0---------------0-----0-------------------------------------|
-----------1----0----------------1----0---------3--------3---5---3--|

Guitar 2:
--------------------------------------------------------------------|
--------------------------------------------------------------------|
--------------------------------------------------------------------|
-------------------0---------------------0--------5----------5---5--|
--0-----0---------------0-----0-------2-----------------------------|
-----------1----0----------------1--------------3----3--------------|


------------------------------------|
------------------------------------|
------------------------------------|
----2---2---2---2---2---2----2---2--|
------------------------------------|
--0---0---0---0---0---0----0---0----|

---------------------0--------------|
-------------------------3---1---0--|
------------------------------------|
---6---6-----------2---2---2---2----|
------------------------------------|
-4---4---4---4----------------------|


Part 2, Version 3: 
Guitar 1:
--13-----12------13------12------10------12-----12----|
--13-----13------13------13------10------13-----12----|
--14-----14------14------14------11------14-----13--8x|
--15-----14------15------14------12------15-----14----|
------------------------------------------------------|
------------------------------------------------------|

Guitar 2:
--5------8-------5-------8------10-------8-------7----------------|
--6-----10-------6------10------10------10------------------------|
--5------9-------5-------9------11--4x---9--4x--------------------|
--7-----10-------7------10------12------10---------2---2---2---2--|
---------------------------------12-------------------------------|
---------------------------------10---------------0---0---0---0---|

Guitar 3 plays solo

Solo:
--5--7-8------------5--7-8--11-12--17-15----13-12--------------------------|
---------5------------------------------------------17-15-13---12-13-15-13-|
-----------7-5----------------------------14-------------------------------|
---------------7-----------------------------------------------------------|
---------------------------------------------------------------------------|
---------------------------------------------------------------------------|

--------------------------------------------------------------------------|
--12-13-12----------------------------------------------------------------|
-----------14-13-14-13----------------------------------------------------|
-----------------------15-14-12-------------------------------------------|
--------------------------------15-14-------------------------------------|
------------------------------------------5---8-11-8-10---5---8-11-8-10---|

------------------------------------|
------------------------------------|
------------------------------------|
----5---5---4---3---2---2---2---2---|
------------------------------------|
--3---3---3---3---0---0---0---0-----|

Play Part 1 3x
From the mind to the record from the soul to the throat ...

Related for E-g-o tab