Song name
# A B C D E F G H I J K L M N O P Q R S T U V W X Y Z

Beatsteaks - Cut Off The Top tab

-----------------------------------------------------------------------
                     Cut off the Top tab by Felle
-----------------------------------------------------------------------

Artist:Beatsteaks
Song  :Cut off the Top
Album :.Limbo Messiah
Tuning:EADGBE

Hello again,
After my 1st Beatsteaks-Tab(E-G-O) now comes the 2nd one.
It's the Tab for the Song "Cut off the Top".....
If u wanna play this song u must be able to play reggae...u know what i mean

Intro:

E-0-------------------------------------|
B-0-------------------------------------|
G-0-------------------------------------| x2,then....
D----3--3-3--3-3--3-3--3-3--3-3---------|
A----3--3-3--3-3--3-3--3-3--3-3---------|
E----1--1-1--1-1--1-1--1-1--1-1---------|


Verse+Chorus:

E-5--5--5--5---4--4--4--4---2--2--2--2---5--5---4--4------------|
B-7--7--7--7---5--5--5--5---3--3--3--3---7--7---5--5------------|
G-6--6--6--6---6--6--6--6---4--4--4--4---6--6---6--6------------|
D---------------------------------------------------------------| x2
A---------------------------------------------------------------|
E---------------------------------------------------------------|

Bridge1:

E--------------4--4--4--4---2--2--2--2----------4--4------------|
B-7--7--7--7---5--5--5--5---3--3--3--3---7--7---5--5------------|
G-6--6--6--6---6--6--6--6---4--4--4--4---6--6---6--6------------|
D-7--7--7--7---6--6--6--6---4--4--4--4---7--7---6--6------------|
A-5--5--5--5---4--4--4--4---2--2--2--2---5--5---4--4------------|
E---------------------------------------------------------------|

after that Verse x3,then comes the..

Bridge2:

E-9--9--9--9--9--9--9--9----4--4--4--4---2--2--2--2-------------|
B-10-10-10-10-10-10-10-10---5--5--5--5---3--3--3--3-------------|
G-9--9--9--9--9--9--9--9----4--4--4--4---2--2--2--2-------------| x4
D---------------------------------------------------------------|
A---------------------------------------------------------------|
E---------------------------------------------------------------|

then Verse x3

You canb figure out the outro by yourself.....

Cheers
(Please Vote)
Tap to rate this tab
# A B C D E F G H I J K L M N O P Q R S T U V W X Y Z