Guitaretab - guitar tabs
Song name
# A B C D E F G H I J K L M N O P Q R S T U V W X Y Z

Beatsteaks - Frieda Und Die Bomben tab

	>>>BEATSTEAKS feat. TURBOSTAAT<<<
	>>> FRIEDA  UND  DIE  BOMBEN  <<<

	Hey guys
	This song is tabbed by Robin K. from Bremen - Germany
	I really love the beatsteaks and turbostaat also
	so I thought you might have fun with it like me
	I play this song with my Band and it's really easy to play
	so have fun with it!
	Maybe your versoin of the song is a bit different than mine, 'cause
	this is a live version of the DVD



                  __INTRO!__
       GUITAR 1
    1 + 2 + 3 + 4 +   1 + 2 + 3 + 4 +   1 + 2 + 3 + 4 +   1 + 2 + 3 + 4 +
e:|-----------------|-----------------|-----------------|-----------------|
B:|-----------------|-----------------|-----------------|-----------------|
G:|-----------------|-----------------|-----------------|-----------------|
D:|-----------------|-----------------|-----------------|-----------------|
A:|-4---6-6-6-6-6-6-|-6-6-6-6-6-6-6-6-|-6-6-6-6-6-6-6-6-|-6-6-6-6-6-6-6-6-|
E:|-----------------|-----------------|-----------------|-----------------|
								2x



      GUITAR 1                                    
    1 + 2 + 3 + 4 +   1 + 2 + 3 + 4 +   1 + 2 + 3 + 4 +   1 + 2 + 3 + 4 +
e:|-----------------|-----------------|-----------------|-----------------|
B:|-----------------|-----------------|-----------------|-----------------|
G:|-----------------|-----------------|-----------------|-----------------|
D:|-----------------|-----------------|-----------------|-----------------|
A:|-4---6-6-6-6-6-6-|-6-6-6-6-6-6-6-6-|-4---6-6-6-6-6-6-|-6-6-6-6-6-6-6-6-|
E:|-----------------|-----------------|-----------------|-----------------|
                                                       
      GUITAR 2                                                     
    1 + 2 + 3 + 4 +   1 + 2 + 3 + 4 +   1 + 2 + 3 + 4 +   1 + 2 + 3 + 4 +
e:|-----------------|-----------------|-----------------|-----------------|
B:|-----------------|-----------------|-----------------|-----------------|
G:|-6---8-8-8-8-8-8-|-8-8-8-8-8-8-8-8-|-6---8-8-8-8-8-8-|-8-8-8-8-8-8-8-8-|
D:|-6---8-8-8-8-8-8-|-8-8-8-8-8-8-8-8-|-6---8-8-8-8-8-8-|-8-8-8-8-8-8-8-8-|
A:|-4---6-6-6-6-6-6-|-6-6-6-6-6-6-6-6-|-4---6-6-6-6-6-6-|-6-6-6-6-6-6-6-6-|
E:|-----------------|-----------------|-----------------|-----------------|
								4x





                  __VERSE!__
      GUITAR 1                                                            
    1 + 2 + 3 + 4 +   1 + 2 + 3 + 4 +   1 + 2 + 3 + 4 +   1 + 2 + 3 + 4 +
e:|-----------------|-----------------|-----------------|-----------------|
B:|-----------------|-----------------|-----------------|-----------------|
G:|-----------------|-----------------|-----------------|-----------------|
D:|-----------------|-----------------|-----------------|-----------------|
A:|-6-6-6-6-6-6-6-6-|-4-4-4-4-4-4-4-4-|-6-6-6-6-6-6-6-6-|-6-6-6-6-6-6-6-6-|
E:|-----------------|-----------------|-----------------|-----------------|
                         
      GUITAR 2                                                      
    1 + 2 + 3 + 4 +   1 + 2 + 3 + 4 +   1 + 2 + 3 + 4 +   1 + 2 + 3 + 4 +
e:|-----------------|-----------------|-----------------|-----------------|
B:|-----------------|-----------------|-----------------|-----------------|
G:|-8---------------|-6---------------|-8---------------|-8---------------|
D:|-8---------------|-6---------------|-8---------------|-8---------------|
A:|-6---------------|-4---------------|-6---------------|-6---------------|
E:|-----------------|-----------------|-----------------|-----------------|




      GUITAR 1                                           
    1 + 2 + 3 + 4 +   1 + 2 + 3 + 4 +   1 + 2 + 3 + 4 +   1 + 2 + 3 + 4 +
e:|-----------------|-----------------|-----------------|-----------------|
B:|-----------------|-----------------|-----------------|-----------------|
G:|-----------------|-----------------|-----------------|-----------------|
D:|-----------------|-----------------|-----------------|-----------------|
A:|-6-6-6-6-6-6-6-6-|-4-4-4-4-4-4-4-4-|-6-6-6-6-6-6-6-6-|-9-9-9-9-9-9-9-9-|
E:|-----------------|-----------------|-----------------|-----------------|
                           
      GUITAR 2                                                        
    1 + 2 + 3 + 4 +   1 + 2 + 3 + 4 +   1 + 2 + 3 + 4 +   1 + 2 + 3 + 4 +
e:|-----------------|-----------------|-----------------|-----------------|
B:|-----------------|-----------------|-----------------|-----------------|
G:|-8---------------|-6---------------|-8---------------|-11--------------|
D:|-8---------------|-6---------------|-8---------------|-11--------------|
A:|-6---------------|-4---------------|-6---------------|-9---------------|
E:|-----------------|-----------------|-----------------|-----------------|







                  __REFRAIN!__
      GUITAR 1                                                        
    1 + 2 + 3 + 4 +   1 + 2 + 3 + 4 +   1 + 2 + 3 + 4 +   1 + 2 + 3 + 4 +
e:|-----------------|-----------------|-----------------|-----------------|
B:|-----------------|-----------------|-----------------|-----------------|
G:|-----------------|-----------------|-----------------|-----------------|
D:|-----------------|-----------------|-----------------|-----------------|
A:|-4---6-6-6-6-6-6-|-6-6-6-6-6-6-6-6-|-4---6-6-6-6-6-6-|-6-6-6-6-6-6-6-6-|
E:|-----------------|-----------------|-----------------|-----------------|
                            
      GUITAR 2                                                    
    1 + 2 + 3 + 4 +   1 + 2 + 3 + 4 +   1 + 2 + 3 + 4 +   1 + 2 + 3 + 4 +
e:|-----------------|-----------------|-----------------|-----------------|
B:|-----------------|-----------------|-----------------|-----------------|
G:|-6---8-8-8-8-8-8-|-8-8-8-8-8-8-8-8-|-6---8-8-8-8-8-8-|-8-8-8-8-8-8-8-8-|
D:|-6---8-8-8-8-8-8-|-8-8-8-8-8-8-8-8-|-6---8-8-8-8-8-8-|-8-8-8-8-8-8-8-8-|
A:|-4---6-6-6-6-6-6-|-6-6-6-6-6-6-6-6-|-4---6-6-6-6-6-6-|-6-6-6-6-6-6-6-6-|
E:|-----------------|-----------------|-----------------|-----------------|
                                                               _ 2x _


               then:   __VERSE!__

               then:   __REFRAIN!__ 

               then:
[ Tab from: http://www.guitaretab.com/b/beatsteaks/99146.html ]
                   __SOLO-PART__
      GUITAR 1                                                   
    1 + 2 + 3 + 4 +   1 + 2 + 3 + 4 +   1 + 2 + 3 + 4 +   1 + 2 + 3 + 4 +
e:|-18--------------|-18--------------|-------18--------|-----------------|
B:|-----1717--------|-----1716--------|-1616------------|-----------------|
G:|-----------------|-----------------|-----------------|-----------------|
D:|-----------------|-----------------|-----------------|-----------------|
A:|-----------------|-----------------|-----------------|-----------------|
E:|-----------------|-----------------|-----------------|-----------------|
                      
      GUITAR 2                                             
    1 + 2 + 3 + 4 +   1 + 2 + 3 + 4 +   1 + 2 + 3 + 4 +   1 + 2 + 3 + 4 +
e:|-----------------|-----------------|-----------------|-----------------|
B:|-----------------|-----------------|-----------------|-----------------|
G:|-----------------|-----------------|-----------------|-----------------|
D:|-----------------|-----------------|-----------------|-----------------|
A:|-4---6-6---------|-4---6-6---------|-4---6-6---------|-4---6-6---------|
E:|-----------------|-----------------|-----------------|-----------------|
                                                              _ 2x _




                   __BRIDGE-PART__
      GUITAR 1                                                            
    1 + 2 + 3 + 4 +   1 + 2 + 3 + 4 +   1 + 2 + 3 + 4 +   1 + 2 + 3 + 4 + 
e:|-----------------|-----------------|-----------------|-----------------|
B:|-----------------|-----------------|-----------------|-----------------|
G:|-----------------|-----------------|-----------------|-----------------|
D:|-----------------|-----------------|-----------------|-----------------|
A:|-4---6-6-6-6-6-6-|-6-6-6-6-6-6-6-6-|-4---6-6-6-6-6-6-|-6-6-6-6-6-6-6-6-|
E:|-----------------|-----------------|-----------------|-----------------|
                                                                          
      GUITAR 2                                                            
    1 + 2 + 3 + 4 +   1 + 2 + 3 + 4 +   1 + 2 + 3 + 4 +   1 + 2 + 3 + 4 + 
e:|-----------------|-----------------|-----------------|-----------------|
B:|-----------------|-----------------|-----------------|-----------------|
G:|-6---8-8-8-8-8-8-|-8-8-8-8-8-8-8-8-|-6---8-8-8-8-8-8-|-8-8-8-8-8-8-8-8-|
D:|-6---8-8-8-8-8-8-|-8-8-8-8-8-8-8-8-|-6---8-8-8-8-8-8-|-8-8-8-8-8-8-8-8-|
A:|-4---6-6-6-6-6-6-|-6-6-6-6-6-6-6-6-|-4---6-6-6-6-6-6-|-6-6-6-6-6-6-6-6-|
E:|-----------------|-----------------|-----------------|-----------------|
							      _ 2x _



      GUITAR 1                                                            
    1 + 2 + 3 + 4 +   1 + 2 + 3 + 4 +   1 + 2 + 3 + 4 +   1 + 2 + 3 + 4 +
   PM..................................................................... 
e:|-----------------|-----------------|-----------------|-----------------|
B:|-----------------|-----------------|-----------------|-----------------|
G:|-----------------|-----------------|-----------------|-----------------|
D:|-----------------|-----------------|-----------------|-----------------|
A:|-6-6-6-6-6-6-6-6-|-6-6-6-6-6-6-6-6-|-6-6-6-6-6-6-6-6-|-6-6-6-6-6-6-6-6-|
E:|-----------------|-----------------|-----------------|-----------------|
								2x




      GUITAR 1                                                            
    1 + 2 + 3 + 4 +   1 + 2 + 3 + 4 +   1 + 2 + 3 + 4 +   1 + 2 + 3 + 4 +
e:|-----------------|-----------------|-----------------|-----------------|
B:|-----------------|-----------------|-----------------|-----------------|
G:|-----------------|-----------------|-----------------|-----------------|
D:|-----------------|-----------------|-----------------|-----------------|
A:|-6^--------------|-----------6-6-6-|-4---------------|-----------4-4-4-|
E:|-----------------|-----------------|-----------------|-----------------|



      GUITAR 1                                                            
    1 + 2 + 3 + 4 +   1 + 2 + 3 + 4 +   1 + 2 + 3 + 4 +   1 + 2 + 3 + 4 +
e:|-----------------|-----------------|-----------------|-----------------|
B:|-----------------|-----------------|-----------------|-----------------|
G:|-----------------|-----------------|-----------------|-----------------|
D:|-----------------|-----------------|-----------------|-----------------|
A:|-6^--------------|-----------6-6-6-|-6---6---6---6---|-6---6---6---6---|
E:|-----------------|-----------------|-----------------|-----------------|





                  __REFRAIN!__
      GUITAR 1                                                             
    1 + 2 + 3 + 4 +   1 + 2 + 3 + 4 +   1 + 2 + 3 + 4 +   1 + 2 + 3 + 4 +  
e:|-----------------|-----------------|-----------------|-----------------|
B:|-2---4-4-4-4-4-4-|-4-4-4-4-4-4-4-4-|-2---4-4-4-4-4-4-|-4-4-4-4-4-4-4-4-|
G:|-----------------|-----------------|-----------------|-----------------|
D:|-----------------|-----------------|-----------------|-----------------|
A:|-----------------|-----------------|-----------------|-----------------|
E:|-----------------|-----------------|-----------------|-----------------|
                            						
      GUITAR 2                                                             
    1 + 2 + 3 + 4 +   1 + 2 + 3 + 4 +   1 + 2 + 3 + 4 +   1 + 2 + 3 + 4 +  
e:|-----------------|-----------------|-----------------|-----------------|
B:|-----------------|-----------------|-----------------|-----------------|
G:|-6---8-8-8-8-8-8-|-8-8-8-8-8-8-8-8-|-6---8-8-8-8-8-8-|-8-8-8-8-8-8-8-8-|
D:|-6---8-8-8-8-8-8-|-8-8-8-8-8-8-8-8-|-6---8-8-8-8-8-8-|-8-8-8-8-8-8-8-8-|
A:|-4---6-6-6-6-6-6-|-6-6-6-6-6-6-6-6-|-4---6-6-6-6-6-6-|-6-6-6-6-6-6-6-6-|
E:|-----------------|-----------------|-----------------|-----------------|
								2x


                   __SOLO-PART__
      GUITAR 1                                                             
    1 + 2 + 3 + 4 +   1 + 2 + 3 + 4 +   1 + 2 + 3 + 4 +   1 + 2 + 3 + 4 +  
e:|-18--------------|-18--------------|-------18--------|-----------------|
B:|-----1717--------|-----1716--------|-1616------------|-----------------|
G:|-----------------|-----------------|-----------------|-----------------|
D:|-----------------|-----------------|-----------------|-----------------|
A:|-----------------|-----------------|-----------------|-----------------|
E:|-----------------|-----------------|-----------------|-----------------|
                            
      GUITAR 2                                                           
    1 + 2 + 3 + 4 +   1 + 2 + 3 + 4 +   1 + 2 + 3 + 4 +   1 + 2 + 3 + 4 +  
e:|-----------------|-----------------|-----------------|-----------------|
B:|-----------------|-----------------|-----------------|-----------------|
G:|-----------------|-----------------|-----------------|-----------------|
D:|-----------------|-----------------|-----------------|-----------------|
A:|-4---6-6---------|-4---6-6---------|-4---6-6---------|-4---6-6---------|
E:|-----------------|-----------------|-----------------|-----------------|
                                                              _ 2x _





                  __OUTRO!__
       GUITAR 1
    1 + 2 + 3 + 4 +   1 + 2 + 3 + 4 +   1 + 2 + 3 + 4 +   1 + 2 + 3 + 4 +  
e:|-----------------|-----------------|-----------------|-----------------|
B:|-----------------|-----------------|-----------------|-----------------|
G:|-----------------|-----------------|-----------------|-----------------|
D:|-----------------|-----------------|-----------------|-----------------|
A:|-4---6-6-6-6-6-6-|-6-6-6-6-6-6-6-6-|-4---6-6-6-6-6-6-|-6-6-6-6-6-6-6-6-|
E:|-----------------|-----------------|-----------------|-----------------|
								4x 


       GUITAR 1
    1 + 2 + 3 + 4 + 
e:|-----------------|
B:|-----------------|
G:|-6-6-------------|
D:|-6-6------6-6----|
A:|-4-4------6-6----|
E:|----------4-4----|
Related for Frieda Und Die Bomben tab
Advertisement will be closed in 10 seconds