Guitaretab - guitar tabs
Song name
# A B C D E F G H I J K L M N O P Q R S T U V W X Y Z

Beautiful Creatures - Ride tab

Ride
(Ashba/LeSte)
Beautiful Creatures
Tabbed badly by EMB

Heavily Distorted guitar
Rhythm Fig 1:Intro & Reappears throughout song
eb|----------------------------------------------------------------|
Bb|-----------------------depress-bar------------------------------|
Gb|-----------------------v--------------------------depress-bar---|
Db|-----------------------5--------------------------v-------------|
Ab|-----------------------5--------------------------5-------------|
Db|--0-3-5-3-0--0-3-5----------0-3-5-3-0--0-3-5------5-------------|
[ Tab from: http://www.guitaretab.com/b/beautiful-creatures/122692.html ]
eb|----------------------------------------------------------------|
Bb|-----------------------depress-bar------------------------------|
Gb|-----------------------v----------------------------------------|
Db|-----------------------5----------------------------------------|
Ab|-----------------------5--------------------------5-5-3-0-------|
Db|--0-3-5-3-0--0-3-5-3-0------0-3-5-3-0--0-3-5-3-0--5-5-3-0-------|

Rhythm Fig 2:Verses
eb|---------------------------------------------------------------|
Bb|---------------------------------------------------------------|
Gb|---------------------------------------------------------------|
Db|---------------------------------------------------------------|
Ab|--xxxxxxxxxxxxxxxxxxxxxxxxxxxxxxxxxxxxxxxxxxxxxxxx--5-5-3-0----|
Db|--xxxxxxxxxxxxxxxxxxxxxxxxxxxxxxxxxxxxxxxxxxxxxxxx--5-5-3-0----|

Rhythm Fig 3:Chorus (is it even close?)
eb|---------------------------------------------------------------|
Bb|---------------------------------------------------------------|
Gb|---------------------------------------------------------------|
Db|---------------------------------------------------------------|
Ab|--5-5-5-5-5--10-10-10-10-10--7-7-7-7-7--9-9-9-9-9--------------|
Db|--5-5-5-5-5--10-10-10-10-10--7-7-7-7-7--9-9-9-9-9--------------|
Related for Ride tab
Advertisement will be closed in 10 seconds