Song name
# A B C D E F G H I J K L M N O P Q R S T U V W X Y Z

Beautiful South - Dont Marry Her tab

Tabbed & Arranged by: Josh Daley

Tuning:  E A D G B E ( Standard)


Intro:

--0--3--1--3--1--0--2--3--|
--1--0--1--0--1--1--3--0--|
--0--0--2--0--2--0--2--0--| x2
--2--0--3--0--3--2--0--0--|
--3--x--3--x--3--3-----x--|
-----3--1--3--1--0-----3--|



Verse:

--0--3--1--3--1--0--2--3--|
--1--0--1--0--1--1--3--0--|
--0--0--2--0--2--0--2--0--|
--2--0--3--0--3--2--0--0--|
--3--x--0--x--3--3-----x--|
-----3-----3-----------3--|

--0--3--1--3--1--3--0--|
--1--0--1--0--1--0--1--|
--0--0--2--0--2--0--0--|
--2--0--3--0--3--0--2--|
--3--x--0--x--3--x--3--|
-----3-----3-----3-----|




Fill after 1st & 3rd Verse:

-----------|
-----------|
-----5-5~~-|
--/5-------|
-----------|
-----------|



All other fills:

-----------|
-----------|
-----7-5~~-|
--/5-------|
-----------|
-----------|



Chorus:

--0----1--0--1------0------1--0--1--3--0----|
--1----1--1--1------1------1--1--1--0--1----|
--0----2--0--2------0------2--0--2--0--0----|
--2----3--2--3------2------3--2--3--0--2----|
--3----3--3--3------3------3--3--3--x--3----|
-------1-----1-------------1-----1--3-------|



Solo: (or play verse)

-------------------------------------------------------------------------------------------|
------------------------------------------------------1---------1----------1-0-------------|
--------0-----------0-----------2b-^0---------0-----2----------0---------0-----0^2-0-------| x2
-----0------0---0-2-----0---0-2-----------0^2------------2---2-----2---2-------------0^2-0-|
--3-----------3------(3)--3-------------3---------3--------3---------3---------------------|
-------------------------------------------------------------------------------------------|

-------------------------------------------------------------------------------------------------|
-------------------------------------------------------------------------------------------------|
------0-2br2-0---2br2-(0)-0-----5---7b~-5---7b~-5-7~~-------------------------7b~-5---7b-7b~-5~~-|
--0-2----------2--------------7---7-------7---------------5-7b~-5---7b~(5)-5~--------7-----------|
--3---------------------------------------------------5\7---------7------------------------------|
-------------------------------------------------------------------------------------------------|
Tap to rate this tab
# A B C D E F G H I J K L M N O P Q R S T U V W X Y Z