Song name
# A B C D E F G H I J K L M N O P Q R S T U V W X Y Z

Bebo Norman - Ruins tab

Tuning: EADGBe (standard)

Capo First Fret

(suggested Chorus chords, G D C)

Intro\Verse riff

----------------------------------------------------------------------------|
----------------------------------------------------------------------------|
----------------------------------------------------------------------------|
-----0----0----0----2----2----0----0----------------------------------------|
----------------------------------------2----2----2----2----3----3----2----2|
-3------3----3----3----3----3----3----3----3----3----3----3----3----3----3--|

|-----------------------------------------------------------------------------|
|-----------------------------------------------------------------------------|
|-----------------------------------------------------------------------------|
|--------0----0----0----2----2----0----0--------------------------------------|
|------------------------------------------2----2----2----2----0----0----3----|
|---3------3----3----3----3----3----3----3----3----3----3----3----3----3----3-|


---------------------------------------|
---------------------------------------|
---------------------------------------|
---------------------------------------|
-3----3----3----3----3----3----3-------|
----3----3----3----3----3----3---------|


Verse:
Laying flat upon my back, all the world in motion,
Everything goes by so fast, I feel like Im frozen.
After all is said and done, did I fail to mention,
Everything I havent done, all my good intentions.

Chorus:
G              C     D               C         G
And this is my holy hour, this is my world on fire,
             C         D                 C
This is my desperate play, this is where I am saved.


Verse:
Have no fear of height or depth, have no fear of crashing,
Single thing I fear the most, simply feeling nothing.

Chorus:
And this is my holy hour, this is my world on fire,
This is my desperate play, this is where I am made,
This is my kingdom come, this is my freedom song,
This is my helpless state, this is where I am saved.


Bridge:
           G        C          D               C
And let my ruins become, the ground you build upon,
       G      C            D
Let my ruins become, the start,
            G       C         D                C
And let my ruins become, the ground your building on,
            G          C         D
From whats left of my broken heart.

And this is my holy hour, this is my world on fire,
This is my desperate play, this is where I am made,
This is my kingdom come, this is my freedom song,
This is my helpless state, this is where I am saved.
Yeah
Tap to rate this tab
 
# A B C D E F G H I J K L M N O P Q R S T U V W X Y Z