Song name
# A B C D E F G H I J K L M N O P Q R S T U V W X Y Z

Bebo Norman - Ruins tab

RUINS by Bebo Norman
Linh-Thong Nguyen


Key Signature: G# major
Capo: 4

Chords:
G# [066500]
C#sus2 [006600]
D#sus2 [068800]
Fmsus2 [08/10/10/90]


Introduction:
4/4

    1 e & a 2 e & a 3 e & a 4 e & a
E|------------------------------------|
B|------------------------------------|
G|------------------------------------|
D|------------------------------------|
A|------6---6---6---8---8---6---6-----|
E|--0-----0---0---0---0---0---0---0---|

E|------------------------------------|
B|------------------------------------|
G|------------------------------------|
D|------------------------------------|
A|----6---6---6---6---0---0---6-------|
E|--8---8---8---8---9---9---8---8-----|

E|------------------------------------|
B|------------------------------------|
G|------------------------------------|
D|------------------------------------|
A|------6---6---6---8---8---6---6-----|
E|--0-----0---0---0---0---0---0---0---|

E|------------------------------------|
B|------------------------------------|
G|------------------------------------|
D|------------------------------------|
A|----6---6---6---6---0---0---0---0---|
E|--8---8---8---8---6---6---9---9-----|


3/4

E|------------------------------------|
B|------------------------------------|
G|------------------------------------|
D|------------------------------------|
A|----0---0---0---0---0---0-----------|
E|--9---9---9---9---9---9---9---------|


So, it goes: 4/4: 4 lines, 3/4, REPEAT.



RUINS, by Bebo Norman

[VERSE 1]
G#            Fm    D#
Laying flat upon my back
G#               C# G#
All the world in motion
G#              Fm    D#
Everything goes by so fast
G#              D# C#
I feel like I'm frozen
G#           Fm       D#
After all is said and done
G#            C#
Did I fail to mention
G#           Fm      D#
Everything I haven't done
G#            D# C#
All my good intentions


[CHORUS]
G#           Fm    D#              C#       G#
  This is my holy hour, This is my world on fire
G#           Fm         D#                 C#   G#
  This is my desperate play, This is where I am saved

[VERSE 2]
G#              Fm        D#
I've no fear of height or depth
G#              C# G#
I've no fear of crashing
G#                 Fm       D#
The single thing I fear the most
G#             D# C#
Simply feeling nothing


[CHORUS]
G#           Fm    D#              C#       G#
  This is my holy hour, This is my world on fire
G#           Fm         D#                 C#   G#
  This is my desperate play, This is where I am saved
G#           Fm      D#               C#      G#
  This is my kingdom come, This is my freedom song
G#           Fm       D#                   C#   G#
  This is my helpless state, This is where I am saved


[BRIDGE]
       C#        G#     D#
Let my ruins become the ground you build upon
       C#        G#     D#
Let my ruins become the start
       C#        G#     D#
Let my ruins become the ground you build it on
            C#         G#     D#
From what's left of my broken heart


[CHORUS]

[INTRODUCTION]


[~_~]
BANZAI
Tap to rate this tab
 
# A B C D E F G H I J K L M N O P Q R S T U V W X Y Z