Guitaretab - guitar tabs
Song name
# A B C D E F G H I J K L M N O P Q R S T U V W X Y Z

Beck Jeff - Goodbye Pork Pie Hat tab

-------------------------------------------------------------------------------
			     GOODBYE PORK PIE HAT  Jeff Beck
-------------------------------------------------------------------------------
Tabbed by:
Email:

Tuning: Standard

e|------------------------------------------------------------5-8--1-3-1--------|
B|----------------------------------------------------------3-----3-------------|
G|------------------------------------------------------------------------------|
D|-----3---3-5b--------3----------3---3-5b-3-5------3---------------------------|
A|---5---5-------5-3-5---5-3-5--5---5----------5-3-5--5-3-5---------------------|
E|--5--------------------------5------------------------------------------------|
[ Tab from: http://www.guitaretab.com/b/beck-jeff/1364.html ]
e|--1-5-10b-------------------------------------------------------------------|
B|-3--------------12b---------------------------------10-8-------8-6-----8b---|
G|----------10-12-----14-10------10-13-7b-6-13-8-8b-7------10b-7-----7-5------|
D|--------------------------11------------------------------------------------|
A|-----------------------------12---------------------------------------------|
E|----------------------------------------------------------------------------|

e|---------------------------------------------------------------------------|
B|-6---6b----10-8------------------------------------------------------------|
G|---7----7-------10-7-5-2---------------------------------------------------|
D|---------------------------------------------------------------------------|
A|--------------------------5------------------------------------------------|
E|---------------------------------------------------------------------------|
Related for Goodbye Pork Pie Hat tab