Guitaretab - guitar tabs
Song name
# A B C D E F G H I J K L M N O P Q R S T U V W X Y Z

Beck Mongolian Chop Squad - Face Acoustic tab

A     Asus4     Dmaj7    G   G/F#
e------------------------------------|
B---2----2--3-2----2------3---3------|
G----2----2----2----2----0---0-------|
D-----------------0------------------|
A--0----0----------------------------|
E-----------------------3---2--------|

 A      Asus4      Dmaj7    G
e------------------------------------|
B---2-----2--3-2-----2------2-3-2----|
G----2---2-2----2-----2----0---------|
D-------------------0----------------|
A--0----0----------------------------|
E------------------------------------|
[ Tab from: http://www.guitaretab.com/b/beck-mongolian-chop-squad/101261.html ]
 A     E      D5  C#m  Cm  Hm
e--------0---------------------------|
B--2-----0---7-7---5---4---3---------|
G---2--------7-7--6---5---4---------|
D------------7-7---6---5---4---------|
A-0----------5-5---4---3---2---------|
E------0-----------------------------|

Repeat

 C#m   C    H5    Esus4
e-----------------------0------------|
B--5----5---------------0------------|
G--6----5----4----2-2---2------------|
D--6----5----4----2-2----------------|
A--4----3----2----2-2----------------|
E-----------------0-0----------------|

 C#m  F#m    F5      G5   F5
e------2-----------------------------|
B--5---2-----------------------------|
G--6---2-----------------------------|
D--6---4-----3-3------5---3-3--------|
A--4---4-----3-3----x-5-x-3-3--------|
E------2-----1-1----x-3-x-1-1--------|

   G          A5
e--3--3---0--------------------------|
B--3--3---0--------------------------|
G--0--0---0---2----------------------|
D--0--0---0---2----------------------|
A--2--2-------0----------------------|
E--3--3------------------------------|
Related for Face Acoustic tab