Beck Mongolian Chop Squad - Evolution tab

Artist: Beck Mongolian Chop Squad
  song: Evolution

symbols:
> =transpose
~ =vibrate


e|----------------------------------------------------------------------|
B|----------------------------------------------------------------------|
G|----------------------------------------------------------------------|
D|-----------------------------------------------------------------7>2--|
A|-5>7-x-x-x-5>7-x-x-x---5>7-x-x-x-5>7-x-x-x---5>7-x-x-x-5>7-x-x-x------|[2x]
E|---------------------5---------------------7~-------------------------|

Chords: G A C D
e|----------------------------------------------------------------------|
B|----------------------------------------------------------------------|
G|----------------------------------------------------------------------|
D|-----------------------------5>7-5---------5>7-5---------5>7-5--------|
A|-5>7-x-x-x-5>7-x-x-x----5-77-3>5-3-5--5-77-3>5-3-5--5-77-3>5-3-5------|
E|---------------------5--3-55-------3--3-55-------3--3-55-------3------|


e|----------------------------------------------------------------------|
B|----------------------------------------------------------------------|
G|----------------------------------------------------------------------|
D|-------5>7-55----7----------------------------------------------------|
A|--5-77-3>5-33-55-5----------------------------------------------------|
E|--3-55--------33------------------------------------------------------|


arrange the Chords to the other part of the song..^^.
Tap to rate this tab
 
# A B C D E F G H I J K L M N O P Q R S T U V W X Y Z