Song name
# A B C D E F G H I J K L M N O P Q R S T U V W X Y Z

Beck Mongolian Chop Squad - Evolution tab

=========================================
      BECK :: Mongolian Chop Squad
               Evolution
From the soundtrack for "BECK: The Movie"
        [2010 live-action movie]
=========================================

Tabbed by Pedro Macedo, A.K.A. Linkerman
Comments and ratings are very much appreciated!
E-mails to "o_samaritano-hellboy(at)sapo.pt"

Standard tuning


Intro        x4
e|------------||-------------------||------|
B|------------||o-----------------o||------|
G|-999-999-99-||--9~--7~--9~--10~--||--9~~-|
D|-999-999-99-||--9~--7~--9~--10~--||--9~~-|
A|-777-777-77-||o-7~--5~--7~---8~-o||--7~~-|
E|------------||-------------------||-(0)--|
                 "We are the BECK"

Verse 1
e|---------------------|-----------------------|
B|---------------------|-----------------------|
G|---------------------|-----------------------|
D|---------------------|-----------------------|
A|-5h7-7777-5h7-7777---|-5h7-7777-5h7-7777-----|
E|-------------------0-|-------------------5br-|
       ....     ....         ....     ....     P.M.

e|-----------------------|---------------------|
B|-----------------------|---------------------|
G|-----------------------|---------------------|
D|-------------------7-\-|---------------------|
A|-5h7-7777-5h7-7777-----|-5h7-7777-5h7-7777---|
E|-----------------------|-------------------0-|
       ....     ....           ....     ....   P.M.


Chorus                    x3
e||-----------------xxxx--||--------------|
B||o----------------xxxx-o||--------------|
G||-----------------xxxx--||--------------|
D||--2-55---5/7-5-2-xxxx--||-2-55-25-5-57-|
A||o-2-55---5/7-5-2-xxxx-o||-2-55-25-5-57-|
E||--0-33-0-3/5-3-0-xxxx--||-0-33-03-3-35-|


Verse 2
e||------------------------|-----------------------|
B||o-----------------------|-----------------------|
G||------------------------|-----------------------|
D||------------------------|-------------------2/7-|
A||o-5h7-7777-5h7-7777-----|-5h7-7777-5h7-7777-----|
E||--------------------5br-|-----------------------|
         ....     ....           ....     ....     P.M.

e|--------------------------|----------------------||
B|--------------------------|---------------------o||
G|--------------------------|----------------------||
D|-------------------5h7p5--|----------------------||
A|-5h7-7777-5h7-7777------7-|-5h7-7777-5h7-7777---o||
E|--------------------------|-------------------0--||
       ....     ....              ....     ....    P.M.


Pre-Chorus
e|---------------|--------------------|---------------|--------------|
B|---------------|--------------------|---------------|--------------|
G|---------------|--------------------|---------------|--------4b6-2-|
D|-2-3-4---------|-2-3-4--------------|-2-3-4---------|-2-3-4--------|
A|-2-3-4---------|-2-3-4--------------|-2-3-4---------|-2-3-4--------|
E|-0-1-2--(Bass)-|-0-1-2--7p5-7-8-7-5-|-0-1-2--(Bass)-|-0-1-2--------|

e|---------------|----------------------|---------------|-------|
B|---------------|----------------------|---------------|-------|
G|---------------|----------------------|---------------|-------|
D|-2-3-4---------|-2-3-4----------------|-2-3-4---------|-2-3-4-|
A|-2-3-4---------|-2-3-4----------------|-2-3-4---------|-2-3-4-|
E|-0-1-2--(Bass)-|-0-1-2--5h7p5-7-8-7-5-|-0-1-2--(Bass)-|-0-1-2-|


Play Chorus x2


Solo
  Lead
e|-----------------------------------------------------------|
B|-15b17r-------------------------------------15-------------|
G|--------14b16r--12--------------------14/16----16----14----|
D|-------------------14-12--------------------------17----17-|
A|-------------------------14-10/11~-\-----------------------|
E|-----------------------------------------------------------|
                                                                       x3
e|---------------------------------||----------------------------------||
B|------------------------------10/||o-12-12-12-12--12/15-15-15h17-17-o||
G|-0-9-0-7-0-5-0-4-0-2b3~~r0-------||----------------------------------||
D|--------------------------2~-----||----------------------------------||
A|---------------------------------||o--------------------------------o||
E|---------------------------------||----------------------------------||

e|-18b19--------------|
B|-------19b20--------|
G|-------------17tr-\-|
D|--------------------|
A|--------------------|
E|--------------------|

  Rhythm
e|-----------------------------------------------------|
B|-----------------------------------------------------|
G|-----------------------------------------------------| x2
D|-2-xxx-2----2-xxx-2----2-xxx-2----2-xxx-2----2-xxx-2-|
A|-2-xxx-2----2-xxx-2----2-xxx-2----2-xxx-2----2-xxx-2-|
E|-0-xxx-0----0-xxx-0----0-xxx-0----0-xxx-0----0-xxx-0-|


Play Verse 2 (but don't repeat)
Play Pre-Chorus
Play Chorus x2


End
e|---------------------|
B|---------------------|
G|---------------------| x4
D|---------------------|
A|-5h7-7777-5h7-7777---|
E|-------------------0-|
       ....     ....   P.M.
Tap to rate this tab
 
# A B C D E F G H I J K L M N O P Q R S T U V W X Y Z