Song name
# A B C D E F G H I J K L M N O P Q R S T U V W X Y Z

Beck - Dont Mess With Me Baby tab

Song:Dont mess with me baby
Artist:Koyuki (Beck Anime)
Tabber:serenade_edy
Email:jevin12@yahoo.com(any questions?)
Tuning:standard

its like blues guitar playing so hope you guys like this whoever watching beck or knew this song

e|-----------------------------------------------------------|
B|-----------------------------------------------------------|
G|---------------------------2-2---2-2---2-2---2-2-----------|
D|-2-2----2-2----2-2---2-2---2-2h4-2-2h4-2-2h4-2-2h4---------|
A|-2-2h4--2-2h4--2-2h4-2-2h4---------------------------------|
E|-----------------------------------------------------------|


                                  (a little pause here) 
e|--------------------------------5-------------------3p2-----------|
B|--------------------------------5----------------------3p2--------|
G|---------------------------2-4-----------------------------1h2----|
D|-2-2----2-2----2-2---2-2---2-4---------------------------------2--|
A|-2-2h4--2-2h4--2-2h4-2-2h4-2-2------------------------------------|
E|------------------------------------------------------------------|



                                   
e|-------------------------|
B|-------4-----------------|
G|----1--1-----------------|
D|-2---2-2-----------------|
A|-------2-----------------|
E|-------------------------|


so here it is hope you like it anime fanatic like me lolx
Tap to rate this tab
# A B C D E F G H I J K L M N O P Q R S T U V W X Y Z