Song name
# A B C D E F G H I J K L M N O P Q R S T U V W X Y Z

Beck - Totally Confused tab

Help us improve GuitareTab! Take a short survey!
Normal Tuning (EADGBe)


Intro:
e|---------------------------------------------------------|
B|---------------------------------------------------------|
G|---------------------------------------------------------|
D|--3--3-3----------2--2-2--2-0----------------------------|
A|----------3--3-3--------------3--3-3--3-3-3--3-3--2-2-2--|
E|---------------------------------------------------------|

 |---------------------------------------------------------|
 |---------------------------------------------------------|
 |---------------------------------------------------------|
 |--3--3-3----------2-------2-0----------------------------|
 |----------3--3-3--------------3----------------2--2h3----|
 |---------------------------------------------------------|


1st Verse:
 |---------------------------------------------------------|
 |---------------------------------------------------------|
 |---------------------------------------------------------|
 |--3--3-3----------2-------2-0--------------------0-2-----|
 |----------3--3-3--------------3----------------3-----3---|
 |---------------------------------------------------------|
  I'm totally confused... by you

 |---------------------------------------------------------|
 |---------------------------------------------------------|
 |---------------------------------------------------------|
 |--3--3-3----------2-------2-0----------------------------|
 |----------3--3-3--------------3-------------------2--3---|
 |---------------------------------------------------------|
  I'm totally confused... by you

 |---------------------------------------------------------|
 |---------------------------------------------------------|
 |---------------------------------------------------------|
 |--3--3-3--6--6-6--5--5-5\2--2--0----------2--------------|
 |----------------------------------3--2-3-----------------|
 |---------------------------------------------------------|
  Ten foot man... making my lunch

 |---------------------------------------------------------|
 |---------------------------------------------------------|
 |---------------------------------------------------------|
 |--3--3-3--6--6-6--5--5-2--2-3-2---------------0-----2----|
 |----------------------------------3-----2-3--------------|
 |---------------------------------------------------------|
  I'll never understand... I want you so much


Chorus:
 |---------------------------------------------------------|
 |---------------------------------------------------------|
 |---------------------------------------------------------|
 |--------------------------0--------------------------0---|
 |--0--0-0-0-0-0-0-0-3--3-3----0--0-0-0-0-0-0-0-0-3--3-----|
 |---------------------------------------------------------|
  And I never, never wante-ed  And I never, never wante-ed
 
 |---------------------------------------------------------|
 |---------------------------------------------------------|
 |---------------------------------------------------------|
 |--7--7-7-7-7-7-7-7--------0----3--3-3\0------------------|
 |-------------------3--3-3---------------3--3-3-3---------|
 |---------------------------------------------------------|
  And I never, never wante-ed

 
2nd verse: (that's right... no guitar on the first 2 lines)
 |---------------------------------------------------------|
 |---------------------------------------------------------|
 |---------------------------------------------------------|
 |---------------------------------------------------------|
 |---------------------------------------------------------|
 |---------------------------------------------------------| 
  I'm totally confused... by you

 |---------------------------------------------------------|
 |---------------------------------------------------------|
 |---------------------------------------------------------|
 |---------------------------------------------------------|
 |---------------------------------------------------------|
 |---------------------------------------------------------|
  I'm totally confused... by you

 |---------------------------------------------------------|
 |---------------------------------------------------------|
 |---------------------------------------------------------|
 |--3--3-3----------0h2----------2-0----0--2---------------|
 |----------3--3-3-------------------3---------------------|
 |---------------------------------------------------------|
  Screamin' in my face... whisper in my ear

 |---------------------------------------------------------|
 |---------------------------------------------------------|
 |---------------------------------------------------------|
 |--3--3-3--6--6-6--5--5--2------3-2---------0-------------|
 |----------------------------------------------3----------|
 |---------------------------------------------------------|
  Put me in a suitcase... with a can of beer

 
Chorus: 
 |---------------------------------------------------------|
 |---------------------------------------------------------|
 |---------------------------------------------------------|
 |-----7-7-7-7-7-7-7--------0-----7-7-7-7-7-7-7--------0---|
 |-------------------3--3-3---------------------3--3-3-----|
 |---------------------------------------------------------|
  And I never, never wante-ed  And I never, never wante-ed

 |-----------------------------|
 |-----------------------------|
 |-----------------------------|
 |--------------------------0--|
 |--0--0-0-0-0-0-0-0-3--3-3----|
 |-----------------------------|
  An I never, never wante-ed


Outro: (not correct, but it's from memory, and it sounds nice, doesn't it)
 |---------------------------------------------------------|
 |---------------------------------------------------------|
 |---------------------------------------------------------|
 |----------------0-1h2--3/5/7---10--10-10-10--10-10-------|
 |--0--0-0--3--3-------------------------------------------|
 |---------------------------------------------------------|

 |---------------------------------------------------------|
 |---------------------------------------------------------|
 |---------------------------------------------------------|
 |--5-5--3--3-3-2--2------2-3-2-0---0-----0-2--5-5-5-5-----|
 |--------------------3-----------3----3-------------------|
 |---------------------------------------------------------|

 |---------------------------------------------------------|
 |---------------------------------------------------------|
 |---------------------------------------------------------|
 |--3-2---2---3--3-3-2/0---0-2--5-5-5-5----5---------------|
 |------3----------------3---------------------------------|
 |---------------------------------------------------------|

 |---------------------------------------------------------|
 |---------------------------------------------------------|
 |---------------------------------------------------------|
 |--3-2/0---2--3--5-7--9-9--9-10---------------------------|
 |--------3------------------------------------------------|
 |---------------------------------------------------------|


Related for Totally Confused tab