Song name
# A B C D E F G H I J K L M N O P Q R S T U V W X Y Z

Beck - Modern Guilt tab

standard tuning,

bottom notation is beats ex. x5 = 5beats

the verse is mostly bass while the guitar is playing a D# and
doodling around but heres how you can play it if you wanna
learn it quick.........

verse
-------------------------------------------------------------|
-------------------------------------------------------------|
------8-----4--------8---------------------------------------|
------8-----4---4----8-----8---------------------------------|
-----6------2---4----6-----8---------------------------------|
----------------2----6-----6---------------------------------|
    x16    x8  x4    x2    x2


base plays

A---6---0---2----------------|
E----------------2----6------|
 x8   x8    x8   x4  x4

Chorus (may need some tweeking but sounds decent)

------------------             -------------------------------|
-------------------             ------------------------------|
--4-------8----8------  x2  ----4--------7----4---------------|
--4---4---8----8------    ------4---4----7----4----8----------|
--2---4---6----8-----      -----2---4----5----2----8----------|
------2---6----6------    ----------2--------------6----------|
x4   x4   x4   x4              x4  x4   x8   x4    x4


catchy chorus doodle
---------------------------------------------------------------|
---------------------------------------------------------------|
---------------------------------------------------------------|
--6--4--6--------6---4---6-------------------------------------|
------------8-----------------9--------------------------------|
---------------------------------------------------------------|
Tap to rate this tab
 
# A B C D E F G H I J K L M N O P Q R S T U V W X Y Z