Song name
# A B C D E F G H I J K L M N O P Q R S T U V W X Y Z

Beck - Devils Haircut tab

                           Devils Haircut by Beck
                          From The Album ''Odelay''

Tabbed by Adam Skirving aka Skirvy

Email: adam.s09@hotmail.com

Tuning: Drop D  : DADGBe




Main Riff 0:00-0:07
|--------------|
|--------------|
|--------------|  X4
|--------------|
|0----0---5--9-|
|0----0---5--9-|



Main Riff 0:23-0:30
|--------------|
|--------------|
|--------------|  X4
|--------------|
|0----0---5--9-|
|0----0---5--9-|



Riff 2 1:06-1:13
|-------------------------------------------------------------|
|-------------------------------------------------------------|
|5/7----5/7----5-------7--5-----------------------------------|
|-------------------7--------7-----5b6--5--5----5h7-----------|
|-------------------------------5--------------------5--8-----|
|-------------------------------------------------------------|



Riff 2 2:43-2:50
|-------------------------------------------------------------|
|-------------------------------------------------------------|
|5/7----5/7----5-------7--5-----------------------------------|
|-------------------7--------7-----5b6--5--5----5h7-----------|
|-------------------------------5--------------------5--8-----|
|-------------------------------------------------------------|



Main Riff 2:50-3:08
|--------------|
|--------------|
|--------------|  X9
|--------------|
|0----0---5--9-|
|0----0---5--9-|


| /  slide up
| \  slide down
| h  hammer-on
| p  pull-off
| ~  vibrato
| +  harmonic
| x  Mute note
============================================================================
Tap to rate this tab
# A B C D E F G H I J K L M N O P Q R S T U V W X Y Z