Guitaretab - guitar tabs
Song name
# A B C D E F G H I J K L M N O P Q R S T U V W X Y Z
Home / B / Beck / Girl tab

Beck - Girl tab

-------------------------------------------------------------------------------
			Girl- Beck
-------------------------------------------------------------------------------
Tabbed by:Neffhead
Email:neffhead@gmail.com
Pretty sure its accurate but comments welcome. Please rate it
Standard tuning
Synth 1
e|--------------------------------------------------------------|
B|--------------------------------------------------------------|
G|--------------------------------------------------------------|
D|--------------------------------------------------------------|      X2
A|----------------------------------------------------4-4-44-4--|
E|-----6----6-------6----6---6--64---4---4-4-------------------|
Synth 2
e|-----11-----------11------12-------11--------11------------------------------------------|
B|-----------14------------------------------14---------12----12------12 12---14-------12--|
G|-----------------------------------------------------------------------------------------|
D|-----------------------------------------------------------------------------------------|
A|-----------------------------------------------------------------------------------------|
E|-----------------------------------------------------------------------------------------|
Guitar verse
e|---------------------------------------------------------------------------------|
B|---------------------------------------------------------------------------------|
G|---------------------------------------------------------------------------------|
D|------8---------8--------8-----8-----8-----8-----8------8----8----8-----8-----8--|
A|---------------------------------------------------------------------------------|
E|--6--------6----------6------6----6-----6-----6-----6-----6----6-----6----6------|

e|------------------------------------------------------------------------------|
B|------------------------------------------------------------------------------|
G|------------------------------------------------------------------------------|
D|--------6------6-------6-----6----6----6--------11---11---11---11--11-----11--|
A|------------------------------------------------------------------------------|
E|-----4------4--------4----4-----4----4-------/9----9------9----9----9-----9---|


Pre-chorus
e|-----------------------------------------------------------------------------|
B|-----------------------------------------------------------------------------|
G|-----------------------------------------------------------------------------|
D|------3-----3-----3---3---3---------------6-----6----6---6----6--------------|
A|-----------------------------------------------------------------------------|
E|---1-----1-----1---1---1-------/3------4----4-----4---4---4------------------| ) X2
[ Tab from: http://www.guitaretab.com/b/beck/135627.html ]
e|------------------------------------------------------------------------------|
B|------------------------------------------------------------------------------|
G|----------8----8----8----8----8--8----8--8----8----8-----8------8-------------|
D|------------------------------------------------------------------------------|
A|--5-----6---6----6----6---6---6----6---6---6---6------6----6------------------|
E|------------------------------------------------------------------------------|

e|-----------------------------------------------------------------------------------------------------------------------|
B|-----------------------------------------------------------------------------------------------------------------------|
G|-----------------------------------------------------------------------------------------------------------------------|
D|-----3----3---3--3----3------------6---6---6---6----6----6--------5----5---5-----5-----5---5------4---4----4----4---4--|
A|-----------------------------------------------------------------------------------------------------------------------|
E|--1----1---1---1---1-----/3-----4---4---4---4----4---4--------3----3----3-----3----3----3------2---2----2---2----2-----|
Chorus
e|----------------------------------------------------------------------------------------------|
B|----------------------------------------------------------------------------------------------|
G|---10---10---10--10--10---10-----8---8----8---8--8---8-----15--15---15-----15---15----15------|
D|---10---10---10--10---10--10-----8---8----8---8---8--8-----15--15---15-----15---15-----15-----|   X4
A|----8-----8----8----8----8----8-----\6---6----6---6---6---6---/13---13---13----13---13----13--|
E|----------------------------------------------------------------------------------------------|
verse
chorus
Guitar solo(with slide)
e|-----------------------------------------------------------------------------|
B|--------------5--------------------------------------------------------------|
G|------------------1--4--1--6---------4-------4-/6----------------------------|   X4
D|--3--5-----------------------------6------6----------------------------------|
A|--4-/6-----------------------------------------------------------------------|
E|-----------------------------------------------------------------------------|


e|---------------------------------------------------------------------------------------------------------|
B|---------------------------------------------------------------------------------------------------------|
G|------------7-------5----------------------------------------------------------0---0---------------------|
D|--6-/8--------x-------x-------6---x-5x--6-/8-----------------6-6-\1-----------1---3/4---4/6-------6-6\--|   X2
A|------------------x-------x------------------------------------------------------------------------------|
E|----------------------------------------------------------4-/6-------------------------------------------|
repeat chorus to end

| /  slide up
| \  slide down
| h  hammer-on
| p  pull-off
| ~  vibrato
| +  harmonic
| x  Mute note
===============================================================================
Related for Girl tab