Song name
# A B C D E F G H I J K L M N O P Q R S T U V W X Y Z

Beck - Moon On The Water tab

Title: Moon on the Water (ost: beck)
Tabber: Mamonade
Tuning: Standard 

Verse:
   
e|----0-------5--------------------------0---------0------|
B|-----0-------5-------4h5----2h4-----0---0-0---0---------|
G|------3-------8----------------------2---2-----2--------|
D|-------------------6------4-------2----------2----------|
A|--2-------7-------4------2-------0----------0-----------|
E|-0-------5----------------------------------------------|

e|-0-----4--2--0---------|
B|-0-----5--4--0---------|
G|-1-----6--4--2---------|
D|-2--7--6--4--2---------|
A|-2--7--4--2--0---------|
E|----5------------------|
(just listen to the song and figure out the stumming pattern)

Chorus: ( just strum this chords)

e|-4--0--0--2--4--0----------------|
B|-5--2--0--4--5--2----------------|
G|-6--2--1--4--6--2----------------|
D|-6--0--2--4--6--0----------------|
A|-4--0--2--2--4--0----------------|
E|---------------------------------|

repeat verse
repeat chorus

Instrumental:

e|----0-------5--------------------------0---------0------|
B|-----0-------5-------4h5----2h4-----0---0-0---0---------|
G|------3-------8----------------------2---2-----2--------|
D|-------------------6------4-------2----------2----------|
A|--2-------7-------4------2-------0----------0-----------|
E|-0-------5----------------------------------------------|


e|----0-------5------------7-------7------5--0------------|
B|-----0-------5-------4h5----4h5-----2h4----0------------|
G|------3-------8----------------------------2------------|
D|-------------------6------4-------2--------2------------|
A|--2-------7-------4------2-------0---------0------------|
E|-0-------5----------------------------------------------|


repeat chorus

Outro:
e|----0-------5------------7-------7------5--0---------0--|
B|-----0-------5-------4h5----4h5-----2h4-----0-0----0----|
G|------3-------8------------------------------2------2---|
D|-------------------6------4-------2--------------2------|
A|--2-------7-------4------2-------0--------------0-------|
E|-0-------5----------------------------------------------|


e|----0-------5--------------------------0-----------0----|
B|-----0-------5-------4h5----2h4-----0---0-0---0----0----|
G|------3-------8----------------------2---2-----2---2----|
D|-------------------6------4-------2----------2-----2----|
A|--2-------7-------4------2-------0----------0------0----|
E|-0-------5----------------------------------------------|



Tap to rate this tab
 
# A B C D E F G H I J K L M N O P Q R S T U V W X Y Z