Song name
# A B C D E F G H I J K L M N O P Q R S T U V W X Y Z

Beck - Gamma Ray tab

Main Riff
E||------------------------|--------------------------|------------------------|
B||------------------------|--------------------------|------------------------|
G||------------------------|--------------------------|------------------------|
D||------------------------|--------------------------|------------------------|
A||---------------------5--|-----5--5--5--5--5--5--5--|------------------------|
E||--0----0----0--0--0-----|--------------------------|--3----3----3--3--3--5--|

E||--------------------------|
B||--------------------------|
G||--------------------------|
D||--------------------------|
A||--------------------------|
E||-----5--5--5--5--5--5--5--|
	
E||------------------------|--------------------------|------------------------|
B||------------------------|--------------------------|------------------------|
G||------------------------|--------------------------|------------------------|
D||------------------------|--------------------------|------------------------|
A||---------------------5--|-----5--5--5--5--5--5--5--|------------------------|
E||--0----0----0--0--0-----|--------------------------|--3----3----3--3--3--5--|

E||--------------------------|
B||--------------------------|
G||--------------------------|
D||--------------------------|
A||--------------------------|
E||-----5--5--5--5--5--5--5--|

E||------------------------|--------------------------|------------------------|
B||------------------------|--------------------------|------------------------|
G||------------------------|--------------------------|------------------------|
D||------------------------|--------------------------|------------------------|
A||---------------------5--|-----5--5--5--5--5--5--5--|------------------------|
E||--0----0----0--0--0-----|--------------------------|--3----3----3--3--3--5--|

E||--------------------------|
B||--------------------------|
G||--------------------------|
D||--------------------------|
A||--------------------------|
E||-----5--5--5--5--5--5--5--|

E||------------------------|--------------------------|------------------------|
B||------------------------|--------------------------|------------------------|
G||------------------------|--------------------------|------------------------|
D||------------------------|--------------------------|------------------------|
A||---------------------5--|-----5--5--5--5--5--5--5--|------------------------|
E||--0----0----0--0--0-----|--------------------------|--3----3----3--3--3--5--|

E||--------------------------|
B||--------------------------|
G||--------------------------|
D||--------------------------|
A||--------------------------|
E||-----5--5--5--5--5--5--5--|

Verse
E||----------------------|----------------------|
B||----------------------|----------------------|
G||----------------------|----------------------|
D||----------------------|----------------------|
A||--5----5----5----5----|----------------------|
E||----------------------|--3----3----3----3----|

E||----------------------|----------------------|
B||----------------------|----------------------|
G||----------------------|----------------------|
D||----------------------|----------------------|
A||--2----2----2----2----|--2----2----2----2----|
E||----------------------|----------------------|

E||----------------------|----------------------|
B||----------------------|----------------------|
G||----------------------|----------------------|
D||----------------------|----------------------|
A||--5----5----5----5----|----------------------|
E||----------------------|--3----3----3----3----|

E||----------------------|----------------------|
B||----------------------|----------------------|
G||----------------------|----------------------|
D||----------------------|----------------------|
A||--2----2----2----2----|--2----2----2----2----|
E||----------------------|----------------------|

E||----------------------|----------------------|
B||----------------------|----------------------|
G||----------------------|----------------------|
D||----------------------|----------------------|
A||--5----5----5----5----|----------------------|
E||----------------------|--3----3----3----3----|

E||----------------------|----------------------|
B||----------------------|----------------------|
G||----------------------|----------------------|
D||----------------------|----------------------|
A||--2----2----2----2----|--2----2----2----2----|
E||----------------------|----------------------|

E||----------------------|----------------------|
B||----------------------|----------------------|
G||----------------------|----------------------|
D||----------------------|----------------------|
A||--5----5----5----5----|----------------------|
E||----------------------|--3----3----3----3----|

E||----------------------|----------------------|
B||----------------------|----------------------|
G||----------------------|----------------------|
D||----------------------|----------------------|
A||--2----2----2----2----|--2----2----2----2----|
E||----------------------|----------------------|

chorus
E||------------------------|--------------------------|------------------------|
B||------------------------|--------------------------|------------------------|
G||------------------------|--------------------------|------------------------|
D||------------------------|--------------------------|------------------------|
A||---------------------5--|-----5--5--5--5--5--5--5--|------------------------|
E||--0----0----0--0--0-----|--------------------------|--3----3----3--3--3--5--|

E||--------------------------|
B||--------------------------|
G||--------------------------|
D||--------------------------|
A||--------------------------|
E||-----5--5--5--5--5--5--5--|

E||------------------------|--------------------------|------------------------|
B||------------------------|--------------------------|------------------------|
G||------------------------|--------------------------|------------------------|
D||------------------------|--------------------------|------------------------|
A||---------------------5--|-----5--5--5--5--5--5--5--|------------------------|
E||--0----0----0--0--0-----|--------------------------|--3----3----3--3--3--5--|

E||--------------------------|
B||--------------------------|
G||--------------------------|
D||--------------------------|
A||--------------------------|
E||-----5--5--5--5--5--5--5--|

E||------------------------|--------------------------|------------------------|
B||------------------------|--------------------------|------------------------|
G||------------------------|--------------------------|------------------------|
D||------------------------|--------------------------|------------------------|
A||---------------------5--|-----5--5--5--5--5--5--5--|------------------------|
E||--0----0----0--0--0-----|--------------------------|--3----3----3--3--3--5--|

E||--------------------------|
B||--------------------------|
G||--------------------------|
D||--------------------------|
A||--------------------------|
E||-----5--5--5--5--5--5--5--|

E||------------------------|--------------------------|------------------------|
B||------------------------|--------------------------|------------------------|
G||------------------------|--------------------------|------------------------|
D||------------------------|--------------------------|------------------------|
A||---------------------5--|-----5--5--5--5--5--5--5--|------------------------|
E||--0----0----0--0--0-----|--------------------------|--3----3----3--3--3--5--|

E||--------------------------|
B||--------------------------|
G||--------------------------|
D||--------------------------|
A||--------------------------|
E||-----5--5--5--5--5--5--5--|

Verse
E||----------------------|----------------------|
B||----------------------|----------------------|
G||----------------------|----------------------|
D||----------------------|----------------------|
A||--5----5----5----5----|----------------------|
E||----------------------|--3----3----3----3----|

E||----------------------|----------------------|
B||----------------------|----------------------|
G||----------------------|----------------------|
D||----------------------|----------------------|
A||--2----2----2----2----|--2----2----2----2----|
E||----------------------|----------------------|

E||----------------------|----------------------|
B||----------------------|----------------------|
G||----------------------|----------------------|
D||----------------------|----------------------|
A||--5----5----5----5----|----------------------|
E||----------------------|--3----3----3----3----|

E||----------------------|----------------------|
B||----------------------|----------------------|
G||----------------------|----------------------|
D||----------------------|----------------------|
A||--2----2----2----2----|--2----2----2----2----|
E||----------------------|----------------------|

E||----------------------|----------------------|
B||----------------------|----------------------|
G||----------------------|----------------------|
D||----------------------|----------------------|
A||--5----5----5----5----|----------------------|
E||----------------------|--3----3----3----3----|

E||----------------------|----------------------|
B||----------------------|----------------------|
G||----------------------|----------------------|
D||----------------------|----------------------|
A||--2----2----2----2----|--2----2----2----2----|
E||----------------------|----------------------|

E||----------------------|----------------------|
B||----------------------|----------------------|
G||----------------------|----------------------|
D||----------------------|----------------------|
A||--5----5----5----5----|----------------------|
E||----------------------|--3----3----3----3----|

E||----------------------|----------------------|
B||----------------------|----------------------|
G||----------------------|----------------------|
D||----------------------|----------------------|
A||--2----2----2----2----|--2----2----2----2----|
E||----------------------|----------------------|

chorus
E||------------------------|--------------------------|------------------------|
B||------------------------|--------------------------|------------------------|
G||------------------------|--------------------------|------------------------|
D||------------------------|--------------------------|------------------------|
A||---------------------5--|-----5--5--5--5--5--5--5--|------------------------|
E||--0----0----0--0--0-----|--------------------------|--3----3----3--3--3--5--|

E||--------------------------|
B||--------------------------|
G||--------------------------|
D||--------------------------|
A||--------------------------|
E||-----5--5--5--5--5--5--5--|

E||------------------------|--------------------------|------------------------|
B||------------------------|--------------------------|------------------------|
G||------------------------|--------------------------|------------------------|
D||------------------------|--------------------------|------------------------|
A||---------------------5--|-----5--5--5--5--5--5--5--|------------------------|
E||--0----0----0--0--0-----|--------------------------|--3----3----3--3--3--5--|

E||--------------------------|
B||--------------------------|
G||--------------------------|
D||--------------------------|
A||--------------------------|
E||-----5--5--5--5--5--5--5--|

E||------------------------|--------------------------|------------------------|
B||------------------------|--------------------------|------------------------|
G||------------------------|--------------------------|------------------------|
D||------------------------|--------------------------|------------------------|
A||---------------------5--|-----5--5--5--5--5--5--5--|------------------------|
E||--0----0----0--0--0-----|--------------------------|--3----3----3--3--3--5--|

E||--------------------------|
B||--------------------------|
G||--------------------------|
D||--------------------------|
A||--------------------------|
E||-----5--5--5--5--5--5--5--|

E||------------------------|--------------------------|------------------------|
B||------------------------|--------------------------|------------------------|
G||------------------------|--------------------------|------------------------|
D||------------------------|--------------------------|------------------------|
A||---------------------5--|-----5--5--5--5--5--5--5--|------------------------|
E||--0----0----0--0--0-----|--------------------------|--3----3----3--3--3--5--|

E||--------------------------|
B||--------------------------|
G||--------------------------|
D||--------------------------|
A||--------------------------|
E||-----5--5--5--5--5--5--5--|

E||----------------------|----------------------|
B||----------------------|----------------------|
G||----------------------|----------------------|
D||----------------------|----------------------|
A||----------------------|----------------------|
E||--7----7----7----7----|--7----7----7----7----|

E||----------------------|----------------------|
B||----------------------|----------------------|
G||----------------------|----------------------|
D||----------------------|----------------------|
A||----------------------|----------------------|
E||--7----7----7----7----|--7----7----7----7----|

Bridge 
E||------------------------|---------------------|
B||-------6s--5------------|---------5-----------|
G||--------------6---------|--------------5------|
D||------------------------|--6------------------|		
A||------------------------|---------------------|
E||------------------------|---------------------|

E||------------------------|---------------------|
B||-------6s--5------------|---------5-----------|
G||-------------5---------|--6-----------6------|
D||------------------------|---------------------|
A||------------------------|---------------------|
E||------------------------|---------------------|
 
E||------------------------|---------------------|
B||-------6s--5------------|---------5-----------|
G||--------------6---------|--------------5------|
D||------------------------|--6------------------|		
A||------------------------|---------------------|
E||------------------------|---------------------|

E||------------------------|---------------------|
B||-------6s--5------------|---------5-----------|
G||-------------5---------|--6-----------6------|
D||------------------------|---------------------|
A||------------------------|---------------------|
E||------------------------|---------------------|
 
chorus
E||------------------------|--------------------------|------------------------|
B||------------------------|--------------------------|------------------------|
G||------------------------|--------------------------|------------------------|
D||------------------------|--------------------------|------------------------|
A||---------------------5--|-----5--5--5--5--5--5--5--|------------------------|
E||--0----0----0--0--0-----|--------------------------|--3----3----3--3--3--5--|

E||--------------------------|
B||--------------------------|
G||--------------------------|
D||--------------------------|
A||--------------------------|
E||-----5--5--5--5--5--5--5--|

E||------------------------|--------------------------|------------------------|
B||------------------------|--------------------------|------------------------|
G||------------------------|--------------------------|------------------------|
D||------------------------|--------------------------|------------------------|
A||---------------------5--|-----5--5--5--5--5--5--5--|------------------------|
E||--0----0----0--0--0-----|--------------------------|--3----3----3--3--3--5--|

E||--------------------------|
B||--------------------------|
G||--------------------------|
D||--------------------------|
A||--------------------------|
E||-----5--5--5--5--5--5--5--|

E||------------------------|--------------------------|------------------------|
B||------------------------|--------------------------|------------------------|
G||------------------------|--------------------------|------------------------|
D||------------------------|--------------------------|------------------------|
A||---------------------5--|-----5--5--5--5--5--5--5--|------------------------|
E||--0----0----0--0--0-----|--------------------------|--3----3----3--3--3--5--|

E||--------------------------|
B||--------------------------|
G||--------------------------|
D||--------------------------|
A||--------------------------|
E||-----5--5--5--5--5--5--5--|

E||------------------------|--------------------------|------------------------|
B||------------------------|--------------------------|------------------------|
G||------------------------|--------------------------|------------------------|
D||------------------------|--------------------------|------------------------|
A||---------------------5--|-----5--5--5--5--5--5--5--|------------------------|
E||--0----0----0--0--0-----|--------------------------|--3----3----3--3--3--5--|

E||--------------------------|
B||--------------------------|
G||--------------------------|
D||--------------------------|
A||--------------------------|
E||-----5--5--5--5--5--5--5--|
Tap to rate this tab
# A B C D E F G H I J K L M N O P Q R S T U V W X Y Z