Song name
# A B C D E F G H I J K L M N O P Q R S T U V W X Y Z

Beck - Vampire Voltage No 6 tab

Awesome Beck song! Hear it here: http://www.youtube.com/watch?v=ZMvLMrSMitE


And, here's the tab. This is only my second tab, but I'm pretty darn sure that 
this is correct. Enjoy!

VERSE CHORDS:


e|---------------------------------------------------|
B|--7-7---5-7-10-10---10-5-3-3---10-5-3--10-5--------|
G|--8-8---6-8-11-11---11-6-4-4---11-6-4--11-6--------|
D|--9-9---7-9-12-12---12-7-5-5---12-7-5--12-7--------|
A|--9-9---7-9-12-12---12-7-5-5---12-7-5--12-7--------|
E|---------------------------------------------------|

LYRICS:


      I don't know what I want but I know 

      That fear is creeping under my bones 
    
      And I know that it's time I go 

      But it's time that's got its teeth in me 
     
      And I want you to fix your eyes 
  
      It's something that could be beautiful 
      
      If you teach me to lose my soul 
        
      It's one percent of what I know 
      
      La la la la la la la la 

      La la la la la la la la
      
      La la la la la la la la 

      La la la la la la la la


HEAVY PART:

e|-----------------------------|
B|-----------------------------|
G|-------------------11--------| after 3x in a row do one of the next part:
D|--9-9-9-9-9-9-9-9--11--12----| 
A|--9-9-9-9-9-9-9-9--9---12----|
E|--7-7-7-7-7-7-7-7------10----| 

e|------------------------------------|
B|------------------------------------|
G|------------------9-9-9-9-9-9-/7----|
D|--7-7-7-7-7-7-/9--9-9-9-9-9-9-/7----|
A|--7-7-7-7-7-7-/9--7-7-7-7-7-7-/5----|
E|--5-5-5-5-5-5-/7--------------------|


BRIDGE PART:

e|-----------------|
B|-----------------|
G|--9-9-9----------|
D|--9-9-9------7-9-|
A|--7-7-7--7-9-----|
E|-----------------|

LYRICS:

Vampire voltage in my soul 

Vampire voltage 

Rolling around and rolling
Tap to rate this tab
 
# A B C D E F G H I J K L M N O P Q R S T U V W X Y Z