Song name
# A B C D E F G H I J K L M N O P Q R S T U V W X Y Z

Beck - Lampshade tab

Standard Tuning
Capo on 3

Harmonica in the key of c

Basically, it's just fingerpicking between variations of C and E chords

  C                  E
----3-------2----------0--------------------------------|
-----------------0-------------3------0-----------------|
---------0----0--------------------1--------------------|
------0-------------------2-----------------------------|
--------------------------------------------------------|
--3------------------0----------------------------------|


  C                  E
----3-------2----------0--------------------------------|
-----------------0-------------3------0-----------------|
---------0----0--------------------1--------------------|
------0-------------------2-----------------------------|
--------------------------------------------------------|
--3------------------0----------------------------------|


  C                  E
----3-------2-----------------0-------------------------|
-----------------0---------3-----3----------------------|
---------0----0---------1-------------------------------|
------0-------------------------------------------------|
--------------------------------------------------------|
--3------------------0----------------------------------|


  C           E
----------0----------------0----------------------------|
-------3----------------0-----3-------------------------|
----0---------0-0h1--1----------------------------------|
--------------0-0h2-------------------------------------|
--------------0-0h2-------------------------------------|
--3-----------------------------------------------------|
Tap to rate this tab
 
# A B C D E F G H I J K L M N O P Q R S T U V W X Y Z