Beck - Ramona Acoustic chords

Highlighted       Show chord diagrams
			      Ramona (Acoustic) - Beck
                            Scott Pilgrim vs. The World

     G           Bm             E

E||--------------2----2------|-------0-------0--0-0-0-0--|
B||--3-----------3----3------|--0----0--0-0--0--0-0-0-0--|
G||--4----4--x-x-4----4--x-x-|--1----1--1-1--1--1-1-1-1--|
D||--5----5--x-x-4----4--x-x-|--2----2--2-2--2--2-2-2-2--|
A||--5----5--x-x-2----2--x-x-|--2----2--2-2--------------|
E||-------3--x-x---------x-x-|--0----0-------------------|


   Am          C/G             D#/A#

|--0----0------0------0-----|------------------------------|
|--1----1------1------1-----|--4--------4-----4-----4------|
|--2----2------0------0-----|--0--------0-----0-----0------|
|--2----2------2---2--2-----|--5--------5-----5-----5--x-x-|
|--0----0--3-3-3---3--3--3--|--6-----6--6--6--6--6--6--x-x-|
|----------3-3-3---3--3--3--|--6-----6--6--6--6--6--6--x-x-|


   A#                           Dm

|--6-----6------6-----6------|--5-----5--5-5-5-5-5-5-5------|
|--6-----6------6-----6------|--6-----6--6-6-6-6-6-6-6------|
|--7--7--7--7-7-7--7--7------|--7--7--7--7-7-7-7-7-7-7--x-x-|
|--8--8--8--8-8-8--8--8--x-x-|--7--7--7--7-7-7-7-7-7-7--x-x-|
|--8--8--8--8-8-8--8--8--x-x-|--5--5--5--5-5-5-5-5-5-5--x-x-|
|--6--6--6--6-6-6--6--6--x-x-|------------------------------|


   G              Gsus4                G                G6

|-------------------------------|--------------------------------||
|--3----------------------------|--3--------------3-5--3-5-3-3-3-||
|--4-----4----4-4-5-5-5-5-4-4-4-|--4-----4----4-4-4-4--4-4-4-4-4-||
|--5--5--5--5-5-5-5-5-5-5-5-5-5-|--5--5--5--5-5-5-5-5--5-5-5-5-5-||
|--5--5--5--5-5-5-5-5-5-5-5-5-5-|--5--5--5--5-5-5-5-5--5-5-5-5-5-||
|--3--3--3--3-3-3-3-3-3-3-3-3-3-|--3--3--3--3-3-3-3-3--3-3-3-3-3-||


The second verse is identical except he doesn't play the Gsus4, or G6 at the end, but 
just plays the G major until the end.
Tap to rate this tab
 
# A B C D E F G H I J K L M N O P Q R S T U V W X Y Z