Beck - Gamma Ray tab

This is my first tab, don't judge me. Hope it's right.
|------------------------------------------|
|------------------------------------------|
|------------------------------------------|  
|------------------------------------------|
|-----------555555555----------------------|
|---0-0-000-----------3-3-333--555555555---| X4

|------------------------------------------|
|------------------------------------------|
|------------------------------------------|
|------------------------------------------|
|---5-5-5-5---------3-3-3-3-3-3-3-3--------|
|-----------3-3-3-3------------------------| X4

|------------------------------------------|
|------------------------------------------|
|------------------------------------------|  
|------------------------------------------|
|-----------555555555----------------------|
|---0-0-000-----------3-3-333--555555555---| X4

|------------------------------------------|
|------------------------------------------|
|------------------------------------------|
|------------------------------------------|
|---3-3-3-3-3-3-3-3---5-5-5-5--------------|
|-----------------------------3-3-3-3------| X4

|------------------------------------------|
|------------------------------------------|
|------------------------------------------|  
|------------------------------------------|
|-----------555555555----------------------|
|---0-0-000-----------3-3-333--555555555---| X4
Tap to rate this tab
 
# A B C D E F G H I J K L M N O P Q R S T U V W X Y Z