Beck - Farewell Ride tab

e---------------------------|
b---------------------------|
g---------------------------|
d-----7---------------7-----|
a--5-----5/8-8-8--5---------|
e---------------------------|

e---------------------------|
b---------------------------|
g---------------------------|
d-----7---------------7-----|
a--5-----5/8-8-8--5---------|
e---------------------------|

e---------------------------------------------------------|
b---------------------------------------------------------|
g---------------------------------------------------------|
d-----7---------------7-----------------------------------|
a--5-----5/8-8-8--5-----5--5/8-8/12-----------------------|
e---------------------------------------------------------|
Tap to rate this tab
 
# A B C D E F G H I J K L M N O P Q R S T U V W X Y Z