Song name
# A B C D E F G H I J K L M N O P Q R S T U V W X Y Z

Beck - Everybodys Got To Learn Sometime tab

-------------------------------------------------------------------------------
			    EVERYBODY'S GOTTA LEARN SOMETIME - Beck
-------------------------------------------------------------------------------
Tabbed by: Barry Miles
Tuning: Drop D

Just watched Eternal Sunshine of the Spotless Mind. EPIC

VERSE:

 Gm           Gm/F  Em7b5   Cm7
|-----------------|-----------------|
|-3---3---3---3---|-3---3---1---1---|
|-3---3---3---3---|-3---3---3---3---|
|-5-------------3-|-2-------1-------|
|-----------------|-----------------|
|-----------------|-----------------|

Gm                  Gm/F  Em7b5  Cm7
  Change your heart
     Gm             Gm/F  Em7b5  Cm7
Look around you
Gm                  Gm/F  Em7b5  Cm7
  Change your heart
         Gm         Gm/F  Em7b5  Cm7
It will astound you


PRECHORUS:

  Gm                D7               Cm    (D)Eb        Fsus4   F
|-----------------|-----------------|-----------------|-----------------|
|-3---3---3---3---|-----------------|-4---4---4---4---|-1---1---1---1---|
|-3---3---3---3---|-5---5---5---5---|-5---5---3---3---|-3---3---2---2---|
|-5---------------|-4---4---4---4---|-----------------|-3---------------|
|-----------------|-5---------------|-3-----5-6-------|-----------------|
|-----------------|-----------------|-----------------|-----------------|

-----------------OR----------------

  Gm                D7sus4  D7
|-----------------|-----------------|
|-3---3---3---3---|-8---8---7---7---|
|-3---3---3---3---|-5---5---5---5---|
|-5---------------|-----------------|
|-----------------|-5---------------|
|-----------------|-----------------|

      Gm               D7sus4  D7
And I need your lovin'
         Cm       Eb   Fsus4   F
Like the sunshine


CHORUS:
  Dm      Eb                Am7b5
|-----------------|-----------------|
|-----------------|-----------------|
|-------------0---|-----------5-----|
|---3-------------|--------/5---5---|
|-----5-----1-----|---------------6-|
|-0-----0-1-------|-----------------|
|                                   | x2
|-----------------|-----------------|
|-----------------|---------4---4---|
|-2---2---3---3---|-3---3---5---5---|
|-3---3---5---5---|-5---5---5---5---|
|-5-----5-6-------|-6-----6-0-----6-|
|-----------------|-----------------|

Dm                      Eb       Am7b5
Everybody's gotta learn sometime
Dm                      Eb       Am7b5
Everybody's gotta learn sometime

  Dm      Eb    F   (half measure)
|-----------------|--------|
|-----------------|--------|
|-------------0---|--------|
|---3-----------3-|--------|
|-----5-----1-----|--------|
|-0-----0-1-------|--------|
|                          |
|-----------------|--------|
|-----------------|--------|
|-2---2---3---3-5-|--------|
|-3---3---5---5-7-|--------|
|-5-----5-6-----8-|--------|
|-----------------|--------|
Dm                      Eb       F
Everybody's gotta learn sometime


BRIDGE:
 
  Bb    Bb#4
|-----------------|
|-----------------|
|-----------------|
|-3-----2---------|
|-1---------------|
|-----------------|
|                 |  x4
|-----------1-3-1-|
|-----------------|
|----------3-3----|
|-----------------|
|-----------------|
|-----------------|

REPEAT EVERYTHING ONCE

GUITAR SOLO:
(*note: a lot of these slides are probably bends, this is just a little easier on an 
        acoustic. also, lots of vibrato on most notes)

                                            (slight bend)
|-----------------|-----------------|-----------------|-----------------|
|---------11\8/11-|-----------------|--8\6/8----------|-----------------|
|-----------------|-----------------|---------6b-5----|-----------------|
|-----------------|-----------------|--------------8-5|-----------------|
|-----------------|-----------------|-----------------|-----------------|
|-----------------|-----------------|-----------------|-----------------|

|-------------8/10|-----------------|-8~--6~----------|-----------------|
|---------11\8----|-----------------|--------8/11-6/8-|----x-8----------|
|-----------------|-----------------|-----------------|-5---------------|
|-----------------|-----------------|-----------------|-----------------|
|-----------------|-----------------|-----------------|-----------------|
|-----------------|-----------------|-----------------|-----------------|

PRECHORUS
CHORUS
BRIDGE (only twice instead of four times)
CHORUS
BRIDGE (only twice)
CHORUS (Harpsichord solo)
BRIDGE (only once)
CHORUS (instrumental)
BRIDGE
Tap to rate this tab
 
# A B C D E F G H I J K L M N O P Q R S T U V W X Y Z