Song name
# A B C D E F G H I J K L M N O P Q R S T U V W X Y Z

Beck - Hollow Log tab

-------------------------------------------------------------------------------
			     HOLLOW LOG - Beck
-------------------------------------------------------------------------------
Tabbed by:  wrnking


Based on this performance:   http://www.youtube.com/watch?v=0PSdkyeZfXo


Tuning:  standard, capo on first

e|------------------------------------|--------------------------------------|
B|--------------0---------------------|--------------0-----------------------|
G|------------------0-----------------|----------0-------0-------------------|
D|--------0-------0-------0-------0---|--------0-------0-------0-------0-----|
A|------------------------------------|--------------------------------------|
E|----3-------3-------3-------0-------|----3-------3-------3-------0---------|	

e|------------------------------------|--------------------------------------|
B|----0h1h3-3---------3---------------|------------2-----3-----3-------------|
G|--------------0-----------0---------|----------------------------0---------|
D|--------0-------0-------0-------0---|------0-------0-------0-------0-------|
A|------------------------------------|--------------------------------------|
E|----3-------3-------3-------3-------|--3-------3-------3-------3-----------|

e|------------------------------------|--------------------------------------|
B|----3\5---3---0---------------0-----|--------------------------------------|
G|------------------0-------0-------0-|--------------------------------------|
D|--------0-------0-------0-------0---|------0-------0-----------------------|
A|------------------------------------|--------------------------------------|
E|----3-------3-------3-------3-------|--3-------0---------------------------|

e|------------------------------------|--------------------------------------|
B|--------------0---------------0-----|--------------------------------------|
G|----------0-------0-------0-------0-|--------------------------------------|
D|--------0-------0-------0-------0---|--------------------------------------|
A|------------------------------------|--------------------------------------|
E|----3-------3-------3-------3-------|--------------------------------------|


Go where you want to                     Do the things you feel
e|------------------------------------|--------------------------------------|
B|--------------0---------------0-----|------------0---------------0---------|
G|----------0-------0-------0-------0-|--------0-------0-------0-------0-----|
D|--------0-------0-------0-------0---|------0-------0-------0-------0-------|
A|------------------------------------|--------------------------------------|
E|----3-------3-------3-------3-------|--3-------3-------3-------3-----------|

walk around with a broken leg            and a hundred dollar bill
e|------------------------------------|--------------------------------------|
B|--------------0---------------0-----|------------0-------------------------|
G|----------0-------0-------0-------0-|--------0-------0---------------------|
D|--------2-------2-------2-------2---|------2-------2-----------------------|
A|----3-------3-------3-------3-------|--3-------3---------------------------|
E|------------------------------------|--------------------------------------|

e|------------------------------------|--------------------------------------|
B|--------------0---------------------|------------0-------------------------|
G|----------0-------0-----------------|--------0-------0---------------------|
D|--------0-------0-------0-------0---|------0-------0-----------------------|
A|------------------------------------|--------------------------------------|
E|----3-------3-------3-------0-------|--3-------3---------------------------|

e|------------------------------------|--------------------------------------|
B|----0h1h3-3---------3---------------|--2h3---3---------3\5---3---0---------|
G|--------------0-----------0---------|------------0-------------------0-----|
D|--------0-------0-------0-------0---|------0-------0-------0-------0-------|
A|------------------------------------|--------------------------------------|
E|----3-------3-------3-------3-------|--3-------3-------3-------3-----------|

e|------------------------------------|--------------------------------------|
B|--------------0---------------------|------------0---------------0---------|
G|----------0-------0-----------------|--------0-------0-------0-------0-----|
D|--------0-------0-------0-------0---|------0-------0-------0-------0-------|
A|------------------------------------|--------------------------------------|
E|----3-------3-------3-------0-------|--3-------3-------3-------3-----------|


Get yourself a pistol                    sleep til you're tired
Walk til you're restless                 get yourself a dog
e|------------------------------------|--------------------------------------|
B|--------------0---------------0-----|------------0---------------0---------|
G|----------0-------0-------0-------0-|--------0-------0-------0-------0-----|
D|--------0-------0-------0-------0---|------0-------0-------0-------0-------|
A|------------------------------------|--------------------------------------|
E|----3-------3-------3-------3-------|--3-------3-------3-------3-----------|

stay up night getting drunk              sleeping in a hollow log
Wake up without thinking                 you're the one that I desire
e|------------------------------------|--------------------------------------|
B|--------------0---------------0-----|------------0-------------------------|
G|----------0-------0-------0-------0-|--------0-------0---------------------|
D|--------2-------2-------2-------2---|------2-------2-----------------------|
A|----3-------3-------3-------3-------|--3-------3---------------------------|
E|------------------------------------|--------------------------------------|

e|------------------------------------|--------------------------------------|
B|--------------0---------------------|--------------------------------------|
G|----------0-------0-----------------|--------------------------------------|
D|--------0-------0-------0-------0---|--------------------------------------|
A|------------------------------------|--------------------------------------|
E|----3-------3-------3-------0-------|--------------------------------------|

e|------------------------------------|--------------------------------------|
B|----0h1h3-3---------3---------------|--2h3---3---------3\5---3---0---------|
G|--------------0-----------0---------|------------0-------------------0-----|
D|--------0-------0-------0-------0---|------0-------0-------0-------0-------|
A|------------------------------------|--------------------------------------|
E|----3-------3-------3-------3-------|--3-------3-------3-------3-----------|

e|--------3-----------1---------0-----|--------------------------------------|
B|--------------0-----------3---------|--------0---------------0-------------|
G|------------------------------------|--3---------3-----0---------0---------|
D|--------0-------0-------0-------0---|------0-------0-------0-------0-------|
A|------------------------------------|--------------------------------------|
E|----3-------3-------3-------3-------|--3-------3-------3-------3-----------|


repeat from "get yourself a pistol", with some variation in last line


e|----0--------------0-----5h3-0------|--------------------------------------|
B|-------------8-------8--------------|--------0---------------0-------------|
G|------------------------------------|--3---------3-----0---------0---------|
D|----0------0------0-----------------|------0-------0-------0-------0-------|
A|------------------------------------|--------------------------------------|
E|------------------------------------|--3-------3-------3-------3-----------|

e|--------------5----------5-------3---0---------------------0---1---1-1-1-|
B|----7---------------7----------------------0-----------3-----------3-3-3-|
G|----------------------------------------3-----0--------------------0-0-0-|
D|----0------0------0------0--------------------------0------0-------0-0-0-|
A|-------------------------------------------------------------------0-0-0-|
E|-------------------------------------------------3-----3-------3---3-3-3-|


************************************

| /   slide up
| \   slide down
| h   hammer-on
| p   pull-off
| ~   vibrato
| +   harmonic
| x   Mute note
| b   Bend
| pb  Pre-bend
| br  Bend release
| pbr Pre-bend release
| brb Bend release bend

************************************
Tap to rate this tab
 
# A B C D E F G H I J K L M N O P Q R S T U V W X Y Z