Song name
# A B C D E F G H I J K L M N O P Q R S T U V W X Y Z

Beck - Fume chords

Highlighted       Show chord diagrams
 Beck

Fume

T=110
gwendal.mollo@orange.fr


Bass Dropped D 

Intro : 
   D                 G
G|----------------------------------|
D|----------------------------------|
A|----------------------------------|
E|-0-0-0-0-0-0-0-0-|-5-5-5-5-5-5-5-5|   x3

   F       A
G|----------------------------------|
D|----------------------------------|
A|----------------------------------|
E|-3-3-3-3-7-7-7-7------------------|   x2

   A
G|----------------------------------|
D|----------------------------------|
A|----------------------------------|
E|-7--------------------------------| 




Verse :
   D                     G
my friend picked me up about quarter past 5
D                                     G
we stopped and got some donuts and we took a little drive
D                        G                            
we had a can of nitrous, we rolled the windows up
F                   A       F              A 
now we're breathin' deeply, breathin' deeply

Chorus : 
              D            G
and there's a fume in this truck
    D                              G        F
and I don't know if we're dead, or what the fuck
              D            G
and there's a fume in this truck 
    D                              G        F       A       
and I don't know if we're dead, or what the fuck or what?


we spent many years always tryin to get high
smokin' broken pencils and beatin' up kids
talkin' to the devil and drinkin' a coke
now we're totally rockin', totally rockin'

Chorus

we got a good idea so we pulled off the road
got some molly hatchet goin' on the stereo
I said, let's roll up the windows, and let the nitrous go
now we can't stop laughing, can't stop laughing

Chorus
... is going on ?

End 
   B       A         D
G|-----------------|-----------------|
D|-----------------|-----------------|
A|-----------------|-----------------|
E|-4-4-4-4-7-7-7-7-|-0-0-0-0-0-0-0-0-|   X?
Tap to rate this tab
# A B C D E F G H I J K L M N O P Q R S T U V W X Y Z