Song name
# A B C D E F G H I J K L M N O P Q R S T U V W X Y Z

Beck - Ziplock Bag tab

beck
ziplock bag
album: one foot in the grave
submitted by m. burgess


open Eb tuning

guitar 2 plays above nut during intro

   guitar 1
   3x
||-------------||---------------
||-------------||---------------
||-------------||---------------
||-------------||---------------
||------3/7~~\-||-----5-5\4~~---
||-0-0---------||---5-----------

guitar2
   3x
||-------------||---------------
||-------------||---------------
||-----8\7~~\--||-----5/7-7\4~~-
||-------------||---------------
||-------------||---------------
||-0-0---------||-5-5-----------

chorus
-----17---------10---------9---9--9-
--------17---------10---/9---9---9--
-/17--------/10---------------------
------------------------------------
------------------------------------
------------------------------------

Open up
bare me my love
ain't no cat
laying flat on the road

It's so loud
seems I've been here
ziplock bag
oh my god
Tap to rate this tab
# A B C D E F G H I J K L M N O P Q R S T U V W X Y Z