Guitaretab - guitar tabs
Song name
# A B C D E F G H I J K L M N O P Q R S T U V W X Y Z

Beck - Golden Age tab

----------------------------------------------------------------------------                              
THE GOLDEN AGE 
----------------------------------------------------------------------------
Band Name: Beck
Song Name: The Golden Age
Album Name: Sea Change
Tuning: Standard
Tabber: weezerguy
Tabber's E-mail: greenday@att.net
                                  |- - - - - - - - - - - - |
                                  | E  0   F#Min  2   A  0 |
                                  |    0          2      2 |
                                  |    1          2      2 |
                                  |    2          4      2 |
                                  |    2          4      0 |
                                  |    X          2      X |
Guitar1                                  |- - - - - - - - - - - - |
    E            F#min   A     E            F#Min   A
e|--0-0-000-0-00-2-2-222-0-00--0-0-000-0-00-2-2-222-0-00|
B|--0-0-000-0-00-2-2-222-2-22--0-0-000-0-00-2-2-222-2-22|
G|--1-1-111-1-11-2-2-222-2-22--1-1-111-1-11-2-2-222-2-22|
D|--2-2-222-2-22-4-4-444-2-22--2-2-222-2-22-4-4-444-2-22|
A|--2-2-222-2-22-4-4-444-0-00--2-2-222-2-22-4-4-444-0-00|
E|---------------2-2-222--------------------2-2-222-----|

e|--4---4-0---0---0----4---4-0---0---0----|
B|----0-----2------------0-----2----------|
G|--------------2---1--------------2---1--|
D|----------------------------------------|
A|----------------------------------------|
E|----------------------------------------|

There you have it! :) Have fun!!!!
Band Name: Beck
Song Name: The Golden Age 
Album Name: Sea Change
Tabber: weezerguy
Tabber's E-mail: greenday@att.net
[ Tab from: http://www.guitaretab.com/b/beck/36241.html ]
Related for Golden Age tab
Advertisement will be closed in 10 seconds