Song name
# A B C D E F G H I J K L M N O P Q R S T U V W X Y Z

Beck - Gettin Home tab

Tuning is slightly lower than standard.
 This tab is for the Western Harvest Field
 By Moonlight version but the Golden Feelings
 one isn't really any different apart from
being an even lower tuning.

Slight variations throughout, have fun with it.

The whole song can be played from the open E
shape chord using your little finger to play
the tune bits over the top. Theres a tune that
just chugs along which can be seen below but
to be honest I find myself drifting to just
plucking the E string with my thumb in the later
parts of the song, doesn't really matter so just
play whatever feels more comfortable.


e|---------------|
B|---------------|
G|---------------|
D|---------------|
A|---2---2---2---|
E|-0---0---0---0-|

The rest of the song is tabbed below.

e|---0-----0-----0----------| (repeats with some slight variations)
B|-0---3-0---3-0---3--------|
G|--------------------0h1---|
D|------------------------2-|
A|--------------------------|
E|--------------------------|

(now here's where I just use the bottom E string as the bass)

e|--------------------------------|
B|-----2-0------2-0-----4-2-0-----|
G|-1h3------1h3------1h3------3-1-|
D|--------------------------------|
A|--------------------------------|
E|--------------------------------|
Tap to rate this tab
 
# A B C D E F G H I J K L M N O P Q R S T U V W X Y Z