Song name
# A B C D E F G H I J K L M N O P Q R S T U V W X Y Z

Beck - O Maria tab

------------||---------------------------------------------1---|
--5--13--17-||-----1--3-1---1--3-4-1------1--3-1------3-4--1-4-|
--5--13--17-||-----2--------1------2------2---------1----------|
--6--14--18-||-----2------2-----------3---2------2--1----------|
------------||---0----0-----3------------0---0------3----------|
------------||-4-------------------1-----------------------1---|

-0--3-0----------------------------------------||
-1----1-1-3---1--3-4--3-1----1---1---1--0------||
----------3---2-------1----2---2---2----0------||
------2----------------------3-------3---------||
-3--------1---0-------3--------------------6-6-||
---------------------------1-----1------3------||

Am              G#            F
there was no one nothing to see
Am          G#                  F
the night is useless and so are we
      C           Bb
cause everybody knows
    Am        G#      F                        G
the fabric of folly is fallen apart at the seams
 Am                          C
and i've been lookin' for a good time
Am                     G#       G
but the pleasures are seldom and few

there's no whiskey there's no wine
just the concrete and a worried mind
'cause everybody knows death creeps in slow
til you feel safe in his arms
and i've been lookin' for a new friend
and i don't care if he's decrepit and grey

(trombone solo verse)

o maria haven't you known
days so careless
all on your own
'cause everybody knows the circus is closed
and the animals have gone wild
and i've been lookin' for my shadow
but this place is so bright and so clean

(repeat first verse)

12 string solo:
------------------------------------------------------|
------------------------------------------------------|
------------------------------------------------------|
---------------------------------------------3-4-3----|
---0--3p0--5-3--3-5-6-3-----0--3p0--5-3--5-6-------6--|
-4------------------------4---------------------------|

----------------------1---------------------------|
-------1--3-4-1-3-1-----3-------------------------|
---0-2--------------------2-----------------------|
-2--------------------------3-0------1-4-3--1-2---|
---------------------------------3-2--------------|
--------------------------------------------------|
Tap to rate this tab
# A B C D E F G H I J K L M N O P Q R S T U V W X Y Z